  0
SECTION
  2
HEADER
  9
$ACADVER
  1
AC1014
  9
$ACADMAINTVER
 70
           0
  9
$DWGCODEPAGE
  3
ANSI_1252
  9
$INSBASE
 10
0.0
 20
0.0
 30
0.0
  9
$EXTMIN
 10
1.000000000000E+20
 20
1.000000000000E+20
 30
1.000000000000E+20
  9
$EXTMAX
 10
-1.000000000000E+20
 20
-1.000000000000E+20
 30
-1.000000000000E+20
  9
$LIMMIN
 10
0.0
 20
0.0
  9
$LIMMAX
 10
0.0
 20
0.0
  9
$ORTHOMODE
 70
           0
  9
$REGENMODE
 70
           1
  9
$FILLMODE
 70
           1
  9
$QTEXTMODE
 70
           0
  9
$MIRRTEXT
 70
           1
  9
$DRAGMODE
 70
           2
  9
$LTSCALE
 40
1.0
  9
$OSMODE
 70
           0
  9
$ATTMODE
 70
           1
  9
$TEXTSIZE
 40
0.2
  9
$TRACEWID
 40
0.05
  9
$TEXTSTYLE
  7
STANDARD
  9
$CLAYER
  8
0
  9
$CELTYPE
  6
CONTINUOUS
  9
$CECOLOR
 62
         256
  9
$CELTSCALE
 40
1.0
  9
$DELOBJ
 70
           1
  9
$DISPSILH
 70
           0
  9
$DIMSCALE
 40
1.0
  9
$DIMASZ
 40
0.18
  9
$DIMEXO
 40
0.0625
  9
$DIMDLI
 40
0.38
  9
$DIMRND
 40
0.0
  9
$DIMDLE
 40
0.0
  9
$DIMEXE
 40
0.18
  9
$DIMTP
 40
0.0
  9
$DIMTM
 40
0.0
  9
$DIMTXT
 40
0.18
  9
$DIMCEN
 40
0.09
  9
$DIMTSZ
 40
0.0
  9
$DIMTOL
 70
           0
  9
$DIMLIM
 70
           0
  9
$DIMTIH
 70
           1
  9
$DIMTOH
 70
           1
  9
$DIMSE1
 70
           0
  9
$DIMSE2
 70
           0
  9
$DIMTAD
 70
           0
  9
$DIMZIN
 70
           0
  9
$DIMBLK
  1

  9
$DIMASO
 70
           1
  9
$DIMSHO
 70
           1
  9
$DIMPOST
  1

  9
$DIMAPOST
  1

  9
$DIMALT
 70
           0
  9
$DIMALTD
 70
           2
  9
$DIMALTF
 40
25.4
  9
$DIMLFAC
 40
1.0
  9
$DIMTOFL
 70
           0
  9
$DIMTVP
 40
0.0
  9
$DIMTIX
 70
           0
  9
$DIMSOXD
 70
           0
  9
$DIMSAH
 70
           0
  9
$DIMBLK1
  1

  9
$DIMBLK2
  1

  9
$DIMSTYLE
  2
STANDARD
  9
$DIMCLRD
 70
           0
  9
$DIMCLRE
 70
           0
  9
$DIMCLRT
 70
           0
  9
$DIMTFAC
 40
1.0
  9
$DIMGAP
 40
0.09
  9
$DIMJUST
 70
           0
  9
$DIMSD1
 70
           0
  9
$DIMSD2
 70
           0
  9
$DIMTOLJ
 70
           1
  9
$DIMTZIN
 70
           0
  9
$DIMALTZ
 70
           0
  9
$DIMALTTZ
 70
           0
  9
$DIMFIT
 70
           3
  9
$DIMUPT
 70
           0
  9
$DIMUNIT
 70
           2
  9
$DIMDEC
 70
           4
  9
$DIMTDEC
 70
           4
  9
$DIMALTU
 70
           2
  9
$DIMALTTD
 70
           2
  9
$DIMTXSTY
  7
STANDARD
  9
$DIMAUNIT
 70
           0
  9
$LUNITS
 70
           2
  9
$LUPREC
 70
           4
  9
$SKETCHINC
 40
0.1
  9
$FILLETRAD
 40
0.0
  9
$AUNITS
 70
           0
  9
$AUPREC
 70
           0
  9
$MENU
  1
acad
  9
$ELEVATION
 40
0.0
  9
$PELEVATION
 40
0.0
  9
$THICKNESS
 40
0.0
  9
$LIMCHECK
 70
           0
  9
$BLIPMODE
 70
           1
  9
$CHAMFERA
 40
0.0
  9
$CHAMFERB
 40
0.0
  9
$CHAMFERC
 40
0.0
  9
$CHAMFERD
 40
0.0
  9
$SKPOLY
 70
           0
  9
$TDCREATE
 40
0.000000000
  9
$TDUPDATE
 40
0.000000000
  9
$TDINDWG
 40
0.0000000000
  9
$TDUSRTIMER
 40
0.0000000000
  9
$USRTIMER
 70
           1
  9
$ANGBASE
 50
0.0
  9
$ANGDIR
 70
           0
  9
$PDMODE
 70
           0
  9
$PDSIZE
 40
0.0
  9
$PLINEWID
 40
0.0
  9
$COORDS
 70
           0
  9
$SPLFRAME
 70
           0
  9
$SPLINETYPE
 70
           6
  9
$SPLINESEGS
 70
           8
  9
$ATTDIA
 70
           0
  9
$ATTREQ
 70
           1
  9
$HANDLING
 70
           1
  9
$HANDSEED
  5
140
  9
$SURFTAB1
 70
           6
  9
$SURFTAB2
 70
           6
  9
$SURFTYPE
 70
           6
  9
$SURFU
 70
           6
  9
$SURFV
 70
           6
  9
$UCSNAME
  2

  9
$UCSORG
 10
0.0
 20
0.0
 30
0.0
  9
$UCSXDIR
 10
1.0
 20
0.0
 30
0.0
  9
$UCSYDIR
 10
0.0
 20
1.0
 30
0.0
  9
$PUCSNAME
  2

  9
$PUCSORG
 10
0.0
 20
0.0
 30
0.0
  9
$PUCSXDIR
 10
1.0
 20
0.0
 30
0.0
  9
$PUCSYDIR
 10
0.0
 20
1.0
 30
0.0
  9
$USERI1
 70
           0
  9
$USERI2
 70
           0
  9
$USERI3
 70
           0
  9
$USERI4
 70
           0
  9
$USERI5
 70
           0
  9
$USERR1
 40
0.0
  9
$USERR2
 40
0.0
  9
$USERR3
 40
0.0
  9
$USERR4
 40
0.0
  9
$USERR5
 40
0.0
  9
$WORLDVIEW
 70
           1
  9
$SHADEDGE
 70
           3
  9
$SHADEDIF
 70
          70
  9
$TILEMODE
 70
           1
  9
$MAXACTVP
 70
          16
  9
$PINSBASE
 10
0.0
 20
0.0
 30
0.0
  9
$PLIMCHECK
 70
           0
  9
$PEXTMIN
 10
1.000000000000E+20
 20
1.000000000000E+20
 30
1.000000000000E+20
  9
$PEXTMAX
 10
-1.000000000000E+20
 20
-1.000000000000E+20
 30
-1.000000000000E+20
  9
$PLIMMIN
 10
0.0
 20
0.0
  9
$PLIMMAX
 10
12.0
 20
9.0
  9
$UNITMODE
 70
           0
  9
$VISRETAIN
 70
           0
  9
$PLINEGEN
 70
           1
  9
$PSLTSCALE
 70
           0
  9
$TREEDEPTH
 70
        3020
  9
$PICKSTYLE
 70
           1
  9
$CMLSTYLE
  2
STANDARD
  9
$CMLJUST
 70
           0
  9
$CMLSCALE
 40
1.0
  9
$PROXYGRAPHICS
 70
           0
  9
$MEASUREMENT
 70
           0
  0
ENDSEC
  0
SECTION
  2
CLASSES
  0
CLASS
  1
LWPOLYLINE
  2
AcDbPolyline
  3
"AutoCAD"
 90
        0
280
           0
281
           1
  0
CLASS
  1
IMAGE
  2
AcDbRasterImage
  3
ISM
 90
      127
280
           0
281
           1
  0
CLASS
  1
OLE2FRAME
  2
AcDbOle2Frame
  3
""
 90
        0
280
           0
281
           1
  0
CLASS
  1
HATCH
  2
AcDbHatch
  3
"ACAD_SEDONA"
 90
        0
280
           0
281
           1
  0
CLASS
  1
DICTIONARYVAR
  2
AcDbDictionaryVar
  3
"AutoCAD"
 90
        0
280
           0
281
           0
  0
CLASS
  1
RASTERVARIABLES
  2
AcDbRasterVariables
  3
ISM
 90
        0
280
           0
281
           0
  0
CLASS
  1
IMAGEDEF
  2
AcDbRasterImageDef
  3
ISM
 90
        0
280
           0
281
           0
  0
CLASS
  1
IMAGEDEF_REACTOR
  2
AcDbRasterImageDefReactor
  3
ISM
 90
        1
280
           0
281
           0
  0
CLASS
  1
IDBUFFER
  2
AcDbIdBuffer
  3
"Acad"
 90
        0
280
           0
281
           0
  0
CLASS
  1
SPATIAL_FILTER
  2
AcDbSpatialFilter
  3
"Acad"
 90
        0
280
           0
281
           0
  0
CLASS
  1
XRECORD
  2
AcDbXrecord
  3
"<Built In>"
 90
        0
280
           0
281
           0
  0
CLASS
  1
SORTENTSTABLE
  2
AcDbSortentsTable
  3
"AutoCAD"
 90
        0
280
           0
281
           0
  0
CLASS
  1
LAYER_INDEX
  2
AcDbLayerIndex
  3
"Acad"
 90
        0
280
           0
281
           0
  0
CLASS
  1
SPATIAL_INDEX
  2
AcDbSpatialIndex
  3
"Acad"
 90
        0
280
           0
281
           0
  0
CLASS
  1
OBJECT_PTR
  2
CAseDLPNTableRecord
  3
"ASE-LPNTableRecord"
 90
        1
280
           0
281
           0
  0
CLASS
  1
LAYOUT
  2
AcDbLayout
  3
"AutoCAD 2000"
 90
        1
280
           0
281
           0
  0
CLASS
  1
PLOTSETTINGS
  2
AcDbPlotSettings
  3
"AutoCAD 2000"
 90
        1
280
           0
281
           0
  0
CLASS
  1
ACDBDICTIONARYWDFLT
  2
AcDbDictionaryWithDefault
  3
"AutoCAD 2000"
 90
        1
280
           0
281
           0
  0
CLASS
  1
ACDBPLACEHOLDER
  2
AcDbPlaceHolder
  3
"AutoCAD 2000"
 90
        1
280
           0
281
           0
  0
CLASS
  1
VBA_PROJECT
  2
AcDbVbaProject
  3
"acadvba"
 90
        1
280
           0
281
           0
  0
CLASS
  1
WIPEOUT
  2
AcDbWipeout
  3
WipeOut|AutoCAD Express Tool|expresstools@autodesk.com
 90
      127
280
           0
281
           1
  0
CLASS
  1
WIPEOUTVARIABLES
  2
AcDbWipeoutVariables
  3
WipeOut|AutoCAD Express Tool|expresstools@autodesk.com
 90
        0
280
           0
281
           0
  0
CLASS
  1
RTEXT
  2
RText
  3
RText|AutoCAD Express Tool|expresstools@autodesk.com
 90
        0
280
           0
281
           1
  0
CLASS
  1
ARCALIGNEDTEXT
  2
AcDbArcAlignedText
  3
ATEXT|AutoCAD Express Tool|expresstools@autodesk.com
 90
        0
280
           0
281
           1
  0
ENDSEC
  0
SECTION
  2
TABLES
  0
TABLE
  2
VPORT
  5
7
100
AcDbSymbolTable
 70
           1
  0
VPORT
  5
15
100
AcDbSymbolTableRecord
100
AcDbViewportTableRecord
  2
*ACTIVE
 70
           0
 10
0.0
 20
0.0
 11
1.0
 21
1.0
 12
6.591288
 22
4.579184
 13
0.0
 23
0.0
 14
1.0
 24
1.0
 15
0.0
 25
0.0
 16
0.0
 26
0.0
 36
1.0
 17
0.0
 27
0.0
 37
0.0
 40
9.158369
 41
0.688564
 42
50.0
 43
0.0
 44
0.0
 50
0.0
 51
0.0
 71
           0
 72
         100
 73
           1
 74
           1
 75
           0
 76
           0
 77
           0
 78
           0
  0
ENDTAB
  0
TABLE
  2
LTYPE
  5
4
100
AcDbSymbolTable
 70
          10
  0
LTYPE
  5
11
100
AcDbSymbolTableRecord
100
AcDbLinetypeTableRecord
  2
BYBLOCK
 70
          64
  3

 72
          65
 73
           0
 40
0.0
  0
LTYPE
  5
12
100
AcDbSymbolTableRecord
100
AcDbLinetypeTableRecord
  2
BYLAYER
 70
          64
  3

 72
          65
 73
           0
 40
0.0
  0
LTYPE
  5
13
100
AcDbSymbolTableRecord
100
AcDbLinetypeTableRecord
  2
CONTINUOUS
 70
          64
  3
Solid line
 72
          65
 73
           0
 40
0.0
  0
LTYPE
  5
1D
100
AcDbSymbolTableRecord
100
AcDbLinetypeTableRecord
  2
DASHED
 70
          64
  3
Dashed
 72
          65
 73
           2
 40
15.0
 49
12.0
 74
           0
 49
-3.0
 74
           0
  0
LTYPE
  5
1E
100
AcDbSymbolTableRecord
100
AcDbLinetypeTableRecord
  2
DOTTED
 70
          64
  3
Dotted
 72
          65
 73
           2
 40
3.5
 49
0.5
 74
           0
 49
-3.0
 74
           0
  0
LTYPE
  5
1F
100
AcDbSymbolTableRecord
100
AcDbLinetypeTableRecord
  2
DOT_CENTER
 70
          64
  3
Dot_Center
 72
          65
 73
           4
 40
2.0
 49
1.25
 74
           0
 49
-0.25
 74
           0
 49
0.25
 74
           0
 49
-0.25
 74
           0
  0
LTYPE
  5
20
100
AcDbSymbolTableRecord
100
AcDbLinetypeTableRecord
  2
LONG_DASHED
 70
          64
  3
Long_Dashed
 72
          65
 73
           2
 40
2.0
 49
1.5
 74
           0
 49
-0.5
 74
           0
  0
LTYPE
  5
21
100
AcDbSymbolTableRecord
100
AcDbLinetypeTableRecord
  2
DASH_CENTER
 70
          64
  3
Dash_Center
 72
          65
 73
           4
 40
36.0
 49
24.0
 74
           0
 49
-3.0
 74
           0
 49
6.0
 74
           0
 49
-3.0
 74
           0
  0
LTYPE
  5
22
100
AcDbSymbolTableRecord
100
AcDbLinetypeTableRecord
  2
PHANTOM
 70
          64
  3
Phantom
 72
          65
 73
           6
 40
2.5
 49
1.25
 74
           0
 49
-0.25
 74
           0
 49
0.25
 74
           0
 49
-0.25
 74
           0
 49
0.25
 74
           0
 49
-0.25
 74
           0
  0
LTYPE
  5
23
100
AcDbSymbolTableRecord
100
AcDbLinetypeTableRecord
  2
CENTER_DASH_DASH
 70
          64
  3
Center_Dash_Dash
 72
          65
 73
           6
 40
22.0
 49
12.0
 74
           0
 49
-3.0
 74
           0
 49
0.5
 74
           0
 49
-3.0
 74
           0
 49
0.5
 74
           0
 49
-3.0
 74
           0
  0
ENDTAB
  0
TABLE
  2
LAYER
  5
2
100
AcDbSymbolTable
 70
           4
  0
LAYER
  5
14
100
AcDbSymbolTableRecord
100
AcDbLayerTableRecord
  2
0
 70
           0
 62
           7
  6
CONTINUOUS
  0
LAYER
  5
24
100
AcDbSymbolTableRecord
100
AcDbLayerTableRecord
  2
MITTELLINIEN
 70
           0
 62
           7
  6
CONTINUOUS
  0
LAYER
  5
25
100
AcDbSymbolTableRecord
100
AcDbLayerTableRecord
  2
1
 70
           0
 62
           7
  6
CONTINUOUS
  0
LAYER
  5
26
100
AcDbSymbolTableRecord
100
AcDbLayerTableRecord
  2
WANNE
 70
           0
 62
           7
  6
CONTINUOUS
  0
ENDTAB
  0
TABLE
  2
STYLE
  5
3
100
AcDbSymbolTable
 70
           2
  0
STYLE
  5
17
100
AcDbSymbolTableRecord
100
AcDbTextStyleTableRecord
  2
STANDARD
 70
           0
 40
0.0
 41
1.0
 50
0.0
 71
           0
 42
0.0
  3
txt
  4

  0
STYLE
  5
13B
100
AcDbSymbolTableRecord
100
AcDbTextStyleTableRecord
  2
CONVERTER_1
 70
           0
 40
0.0
 41
0.71262
 50
0.0
 71
           0
 42
0.0
  3
txt.shx
  4

  0
ENDTAB
  0
TABLE
  2
VIEW
  5
5
100
AcDbSymbolTable
 70
           0
  0
ENDTAB
  0
TABLE
  2
UCS
  5
6
100
AcDbSymbolTable
 70
           0
  0
ENDTAB
  0
TABLE
  2
APPID
  5
8
100
AcDbSymbolTable
 70
           1
  0
APPID
  5
16
100
AcDbSymbolTableRecord
100
AcDbRegAppTableRecord
  2
ACAD
 70
           0
  0
ENDTAB
  0
TABLE
  2
DIMSTYLE
  5
9
100
AcDbSymbolTable
 70
           1
  0
DIMSTYLE
105
18
100
AcDbSymbolTableRecord
100
AcDbDimStyleTableRecord
  2
STANDARD
 70
           0
  3

  4

  5

  6

  7

 40
1.0
 41
0.18
 42
0.0625
 43
0.38
 44
0.18
 45
0.0
 46
0.0
 47
0.0
 48
0.0
 71
           0
 72
           0
 73
           1
 74
           1
 75
           0
 76
           0
 77
           0
 78
           0
140
0.18
141
0.09
142
0.0
143
25.4
144
1.0
145
0.0
146
1.0
147
0.09
170
           0
171
           2
172
           0
173
           0
174
           0
175
           0
176
           0
177
           0
178
           0
270
           2
271
           4
272
           4
273
           2
274
           2
275
           0
280
           0
281
           0
282
           0
283
           1
284
           0
285
           0
286
           0
287
           0
288
           0
340
17
  0
ENDTAB
  0
TABLE
  2
BLOCK_RECORD
  5
1
100
AcDbSymbolTable
 70
           3
  0
BLOCK_RECORD
  5
A
100
AcDbSymbolTableRecord
100
AcDbBlockTableRecord
  2
*MODEL_SPACE
  0
BLOCK_RECORD
  5
B
100
AcDbSymbolTableRecord
100
AcDbBlockTableRecord
  2
*PAPER_SPACE
  0
BLOCK_RECORD
  5
27
100
AcDbSymbolTableRecord
100
AcDbBlockTableRecord
  2
WANNENF_SSE
  0
BLOCK_RECORD
  5
29
100
AcDbSymbolTableRecord
100
AcDbBlockTableRecord
  2
WANNE_PRIME_LINE_265
  0
BLOCK_RECORD
  5
2C
100
AcDbSymbolTableRecord
100
AcDbBlockTableRecord
  2
DLX
  0
ENDTAB
  0
ENDSEC
  0
SECTION
  2
BLOCKS
  0
BLOCK
  5
D
100
AcDbEntity
  8
0
100
AcDbBlockBegin
  2
*MODEL_SPACE
 70
           0
 10
0.0
 20
0.0
 30
0.0
  3
*MODEL_SPACE
  1

  0
ENDBLK
  5
E
100
AcDbEntity
  8
0
100
AcDbBlockEnd
  0
BLOCK
  5
F
100
AcDbEntity
 67
           1
  8
0
100
AcDbBlockBegin
  2
*PAPER_SPACE
 70
           0
 10
0.0
 20
0.0
 30
0.0
  3
*PAPER_SPACE
  1

  0
ENDBLK
  5
10
100
AcDbEntity
 67
           1
  8
0
100
AcDbBlockEnd
  0
BLOCK
  5
28
100
AcDbEntity
  8
0
100
AcDbBlockBegin
  2
WANNENF_SSE
 70
           0
 10
0.0
 20
0.0
 30
0.0
  3
WANNENF_SSE
  1

  0
LINE
  5
6F
100
AcDbEntity
  8
1
  6
CONTINUOUS
 62
           2
100
AcDbLine
 10
237.70725197817
 20
25.0
 11
277.70725197817
 21
25.0
  0
LINE
  5
6E
100
AcDbEntity
  8
1
  6
CONTINUOUS
 62
           2
100
AcDbLine
 10
242.70725197817
 20
55.0
 11
272.70725197817
 21
55.0
  0
LINE
  5
6D
100
AcDbEntity
  8
1
  6
CONTINUOUS
 62
           2
100
AcDbLine
 10
247.70725197817
 20
85.0
 11
267.70725197817
 21
85.0
  0
LINE
  5
6C
100
AcDbEntity
  8
1
  6
CONTINUOUS
 62
           2
100
AcDbLine
 10
236.96255643849
 20
188.19711410789
 11
276.934829945951
 21
186.708036996125
  0
LINE
  5
6B
100
AcDbEntity
  8
1
  6
CONTINUOUS
 62
           2
100
AcDbLine
 10
232.152156889028
 20
193.379782935293
 11
237.148691077461
 21
193.193648296323
  0
LINE
  5
6A
100
AcDbEntity
  8
1
  6
CONTINUOUS
 62
           2
100
AcDbLine
 10
242.145225265891
 20
193.007513657352
 11
272.124430396488
 21
191.890705823529
  0
LINE
  5
69
100
AcDbEntity
  8
1
  6
CONTINUOUS
 62
           2
100
AcDbLine
 10
277.120964584921
 20
191.704571184558
 11
282.117498773354
 21
191.518436545588
  0
LINE
  5
68
100
AcDbEntity
  8
1
  6
CONTINUOUS
 62
           2
100
AcDbLine
 10
217.534823601671
 20
203.93125522907
 11
232.524426166969
 21
203.372851312158
  0
LINE
  5
67
100
AcDbEntity
  8
1
  6
CONTINUOUS
 62
           2
100
AcDbLine
 10
282.489768051295
 20
201.511504922453
 11
297.479370616592
 21
200.953101005541
  0
LINE
  5
66
100
AcDbEntity
  8
1
  6
CONTINUOUS
 62
           2
100
AcDbLine
 10
237.334825716431
 20
198.190182484755
 11
242.331359904862
 21
198.004047845784
  0
LINE
  5
65
100
AcDbEntity
  8
1
  6
CONTINUOUS
 62
           2
100
AcDbLine
 10
272.310565035458
 20
196.887240011961
 11
277.307099223891
 21
196.701105372991
  0
LINE
  5
64
100
AcDbEntity
  8
1
  6
CONTINUOUS
 62
           2
100
AcDbLine
 10
237.70725197817
 20
0.0
 11
237.70725197817
 21
25.0
  0
LINE
  5
63
100
AcDbEntity
  8
1
  6
CONTINUOUS
 62
           2
100
AcDbLine
 10
277.70725197817
 20
0.0
 11
277.70725197817
 21
25.0
  0
LINE
  5
62
100
AcDbEntity
  8
1
  6
CONTINUOUS
 62
           2
100
AcDbLine
 10
272.70725197817
 20
25.0
 11
272.70725197817
 21
55.0
  0
LINE
  5
61
100
AcDbEntity
  8
1
  6
CONTINUOUS
 62
           2
100
AcDbLine
 10
242.70725197817
 20
25.0
 11
242.70725197817
 21
55.0
  0
LINE
  5
60
100
AcDbEntity
  8
1
  6
CONTINUOUS
 62
           2
100
AcDbLine
 10
242.70725197817
 20
55.0
 11
247.70725197817
 21
85.0
  0
LINE
  5
5F
100
AcDbEntity
  8
1
  6
CONTINUOUS
 62
           2
100
AcDbLine
 10
272.70725197817
 20
55.0
 11
267.70725197817
 21
85.0
  0
LINE
  5
5E
100
AcDbEntity
  8
1
  6
CONTINUOUS
 62
           2
100
AcDbLine
 10
252.70725197817
 20
85.0
 11
252.70725197817
 21
187.61058090118
  0
LINE
  5
5D
100
AcDbEntity
  8
1
  6
CONTINUOUS
 62
           2
100
AcDbLine
 10
262.70725197817
 20
85.0
 11
262.70725197817
 21
187.238053401215
  0
LINE
  5
5C
100
AcDbEntity
  8
1
  6
CONTINUOUS
 62
           2
100
AcDbLine
 10
217.534823601671
 20
203.93125522907
 11
217.720958240642
 21
208.927789417502
  0
LINE
  5
5B
100
AcDbEntity
  8
1
  6
CONTINUOUS
 62
           2
100
AcDbLine
 10
217.720958240642
 20
208.927789417502
 11
237.707094994371
 21
208.18325086162
  0
LINE
  5
5A
100
AcDbEntity
  8
1
  6
CONTINUOUS
 62
           2
100
AcDbLine
 10
237.707094994371
 20
208.18325086162
 11
237.334825716431
 21
198.190182484755
  0
LINE
  5
59
100
AcDbEntity
  8
1
  6
CONTINUOUS
 62
           2
100
AcDbLine
 10
232.524426166969
 20
203.372851312158
 11
232.152156889028
 21
193.379782935293
  0
LINE
  5
58
100
AcDbEntity
  8
1
  6
CONTINUOUS
 62
           2
100
AcDbLine
 10
242.331359904862
 20
198.004047845784
 11
242.145225265891
 21
193.007513657352
  0
LINE
  5
57
100
AcDbEntity
  8
1
  6
CONTINUOUS
 62
           2
100
AcDbLine
 10
237.148691077461
 20
193.193648296323
 11
236.96255643849
 21
188.19711410789
  0
LINE
  5
56
100
AcDbEntity
  8
1
  6
CONTINUOUS
 62
           2
100
AcDbLine
 10
272.124430396488
 20
191.890705823529
 11
272.310565035458
 21
196.887240011961
  0
LINE
  5
55
100
AcDbEntity
  8
1
  6
CONTINUOUS
 62
           2
100
AcDbLine
 10
277.307099223891
 20
196.701105372991
 11
277.679368501832
 21
206.694173749856
  0
LINE
  5
54
100
AcDbEntity
  8
1
  6
CONTINUOUS
 62
           2
100
AcDbLine
 10
277.679368501832
 20
206.694173749856
 11
297.665505255562
 21
205.949635193974
  0
LINE
  5
53
100
AcDbEntity
  8
1
  6
CONTINUOUS
 62
           2
100
AcDbLine
 10
297.479370616592
 20
200.953101005541
 11
297.665505255562
 21
205.949635193974
  0
LINE
  5
52
100
AcDbEntity
  8
1
  6
CONTINUOUS
 62
           2
100
AcDbLine
 10
282.489768051295
 20
201.511504922453
 11
282.117498773354
 21
191.518436545588
  0
LINE
  5
51
100
AcDbEntity
  8
1
  6
CONTINUOUS
 62
           2
100
AcDbLine
 10
277.120964584921
 20
191.704571184558
 11
276.934829945951
 21
186.708036996125
  0
LINE
  5
50
100
AcDbEntity
  8
1
  6
CONTINUOUS
 62
           2
100
AcDbLine
 10
1189.45042762874
 20
25.0
 11
1229.450427628739
 21
25.0
  0
LINE
  5
4F
100
AcDbEntity
  8
1
  6
CONTINUOUS
 62
           2
100
AcDbLine
 10
1194.45042762874
 20
55.0
 11
1224.45042762874
 21
55.0
  0
LINE
  5
4E
100
AcDbEntity
  8
1
  6
CONTINUOUS
 62
           2
100
AcDbLine
 10
1199.45042762874
 20
85.0
 11
1219.45042762874
 21
85.0
  0
LINE
  5
4D
100
AcDbEntity
  8
1
  6
CONTINUOUS
 62
           2
100
AcDbLine
 10
1190.172765014704
 20
211.391735749298
 11
1230.148523239395
 21
212.784127346826
  0
LINE
  5
4C
100
AcDbEntity
  8
1
  6
CONTINUOUS
 62
           2
100
AcDbLine
 10
1229.974474289705
 20
217.781097124913
 11
1234.971444067792
 21
217.955146074604
  0
LINE
  5
4B
100
AcDbEntity
  8
1
  6
CONTINUOUS
 62
           2
100
AcDbLine
 10
1194.995685843099
 20
216.562754477076
 11
1224.977504511618
 21
217.607048175222
  0
LINE
  5
4A
100
AcDbEntity
  8
1
  6
CONTINUOUS
 62
           2
100
AcDbLine
 10
1185.001746286926
 20
216.214656577694
 11
1189.998716065012
 21
216.388705527385
  0
LINE
  5
49
100
AcDbEntity
  8
1
  6
CONTINUOUS
 62
           2
100
AcDbLine
 10
1234.62334616841
 20
227.949085630777
 11
1249.61425550267
 21
228.471232479851
  0
LINE
  5
48
100
AcDbEntity
  8
1
  6
CONTINUOUS
 62
           2
100
AcDbLine
 10
1169.662739053284
 20
225.686449284794
 11
1184.653648387544
 21
226.208596133867
  0
LINE
  5
47
100
AcDbEntity
  8
1
  6
CONTINUOUS
 62
           2
100
AcDbLine
 10
1224.803455561928
 20
222.604017953309
 11
1229.800425340014
 21
222.778066903
  0
LINE
  5
46
100
AcDbEntity
  8
1
  6
CONTINUOUS
 62
           2
100
AcDbLine
 10
1189.824667115322
 20
221.385675305471
 11
1194.821636893408
 21
221.559724255162
  0
LINE
  5
45
100
AcDbEntity
  8
1
  6
CONTINUOUS
 62
           2
100
AcDbLine
 10
1229.450427628739
 20
25.0
 11
1229.450427628739
 21
0.0
  0
LINE
  5
44
100
AcDbEntity
  8
1
  6
CONTINUOUS
 62
           2
100
AcDbLine
 10
1189.45042762874
 20
25.0
 11
1189.45042762874
 21
0.0
  0
LINE
  5
43
100
AcDbEntity
  8
1
  6
CONTINUOUS
 62
           2
100
AcDbLine
 10
1194.45042762874
 20
55.0
 11
1194.45042762874
 21
25.0
  0
LINE
  5
42
100
AcDbEntity
  8
1
  6
CONTINUOUS
 62
           2
100
AcDbLine
 10
1224.45042762874
 20
55.0
 11
1224.45042762874
 21
25.0
  0
LINE
  5
41
100
AcDbEntity
  8
1
  6
CONTINUOUS
 62
           2
100
AcDbLine
 10
1219.45042762874
 20
85.0
 11
1224.45042762874
 21
55.0
  0
LINE
  5
40
100
AcDbEntity
  8
1
  6
CONTINUOUS
 62
           2
100
AcDbLine
 10
1199.45042762874
 20
85.0
 11
1194.45042762874
 21
55.0
  0
LINE
  5
3F
100
AcDbEntity
  8
1
  6
CONTINUOUS
 62
           2
100
AcDbLine
 10
1214.45042762874
 20
212.237348563979
 11
1214.45042762874
 21
85.0
  0
LINE
  5
3E
100
AcDbEntity
  8
1
  6
CONTINUOUS
 62
           2
100
AcDbLine
 10
1204.45042762874
 20
211.889039573891
 11
1204.45042762874
 21
85.0
  0
LINE
  5
3D
100
AcDbEntity
  8
1
  6
CONTINUOUS
 62
           2
100
AcDbLine
 10
1249.440206552979
 20
233.468202257937
 11
1249.61425550267
 21
228.471232479851
  0
LINE
  5
3C
100
AcDbEntity
  8
1
  6
CONTINUOUS
 62
           2
100
AcDbLine
 10
1229.452327440632
 20
232.772006459173
 11
1249.440206552979
 21
233.468202257937
  0
LINE
  5
3B
100
AcDbEntity
  8
1
  6
CONTINUOUS
 62
           2
100
AcDbLine
 10
1229.800425340014
 20
222.778066903
 11
1229.452327440632
 21
232.772006459173
  0
LINE
  5
3A
100
AcDbEntity
  8
1
  6
CONTINUOUS
 62
           2
100
AcDbLine
 10
1234.971444067792
 20
217.955146074604
 11
1234.62334616841
 21
227.949085630777
  0
LINE
  5
39
100
AcDbEntity
  8
1
  6
CONTINUOUS
 62
           2
100
AcDbLine
 10
1224.977504511618
 20
217.607048175222
 11
1224.803455561928
 21
222.604017953309
  0
LINE
  5
38
100
AcDbEntity
  8
1
  6
CONTINUOUS
 62
           2
100
AcDbLine
 10
1230.148523239395
 20
212.784127346826
 11
1229.974474289705
 21
217.781097124913
  0
LINE
  5
37
100
AcDbEntity
  8
1
  6
CONTINUOUS
 62
           2
100
AcDbLine
 10
1194.821636893408
 20
221.559724255162
 11
1194.995685843099
 21
216.562754477076
  0
LINE
  5
36
100
AcDbEntity
  8
1
  6
CONTINUOUS
 62
           2
100
AcDbLine
 10
1189.476569215939
 20
231.379614861645
 11
1189.824667115322
 21
221.385675305471
  0
LINE
  5
35
100
AcDbEntity
  8
1
  6
CONTINUOUS
 62
           2
100
AcDbLine
 10
1169.488690103593
 20
230.68341906288
 11
1189.476569215939
 21
231.379614861645
  0
LINE
  5
34
100
AcDbEntity
  8
1
  6
CONTINUOUS
 62
           2
100
AcDbLine
 10
1169.488690103593
 20
230.68341906288
 11
1169.662739053284
 21
225.686449284794
  0
LINE
  5
33
100
AcDbEntity
  8
1
  6
CONTINUOUS
 62
           2
100
AcDbLine
 10
1185.001746286926
 20
216.214656577694
 11
1184.653648387544
 21
226.208596133867
  0
LINE
  5
32
100
AcDbEntity
  8
1
  6
CONTINUOUS
 62
           2
100
AcDbLine
 10
1190.172765014704
 20
211.391735749298
 11
1189.998716065012
 21
216.388705527385
  0
ENDBLK
  5
70
100
AcDbEntity
  8
0
100
AcDbBlockEnd
  0
BLOCK
  5
2A
100
AcDbEntity
  8
0
100
AcDbBlockBegin
  2
WANNE_PRIME_LINE_265
 70
           0
 10
0.0
 20
0.0
 30
0.0
  3
WANNE_PRIME_LINE_265
  1

  0
ARC
  5
83
100
AcDbEntity
  8
1
  6
CONTINUOUS
 62
           7
100
AcDbCircle
 10
1343.058547922837
 20
336.707488916579
 40
100.0
100
AcDbArc
 50
-88.021003938819
 51
-23.240821053517
  0
ARC
  5
82
100
AcDbEntity
  8
1
  6
CONTINUOUS
 62
           7
100
AcDbCircle
 10
197.320247068381
 20
309.757134215977
 40
100.000000000001
100
AcDbArc
 50
-175.149280386874
 51
-92.133433989507
  0
CIRCLE
  5
81
100
AcDbEntity
  8
WANNE
  6
CONTINUOUS
 62
           7
100
AcDbCircle
 10
374.999999999984
 20
590.0
 40
26.0
  0
ARC
  5
80
100
AcDbEntity
  8
1
  6
CONTINUOUS
 62
           7
100
AcDbCircle
 10
-2891.57677793724
 20
47.62135100124
 40
2999.999999988738
100
AcDbArc
 50
4.850719613126
 51
10.707363000016
  0
ARC
  5
7F
100
AcDbEntity
  8
1
  6
CONTINUOUS
 62
           7
100
AcDbCircle
 10
4191.507303989867
 20
-886.542151994827
 40
2999.99999998866
100
AcDbArc
 50
152.160527999997
 51
156.759178946483
  0
ARC
  5
7E
100
AcDbEntity
  8
1
  6
CONTINUOUS
 62
           7
100
AcDbCircle
 10
1892.432692000813
 20
327.647258999305
 40
400.000000001065
100
AcDbArc
 50
136.101588000009
 51
152.160527999968
  0
LINE
  5
7D
100
AcDbEntity
  8
1
  6
DOT_CENTER
 62
           3
100
AcDbLine
 10
374.999999999979
 20
158.0
 11
374.999999999979
 21
229.999999999997
  0
LINE
  5
7C
100
AcDbEntity
  8
1
  6
CONTINUOUS
 62
           7
100
AcDbLine
 10
323.157422001105
 20
204.999999999997
 11
348.999999999979
 21
183.0
  0
LINE
  5
7B
100
AcDbEntity
  8
1
  6
CONTINUOUS
 62
           7
100
AcDbLine
 10
400.99999999998
 20
183.0
 11
427.157422001105
 21
204.999999999997
  0
LINE
  5
7A
100
AcDbEntity
  8
1
  6
CONTINUOUS
 62
           7
100
AcDbLine
 10
348.999999999979
 20
183.0
 11
400.99999999998
 21
183.0
  0
LINE
  5
79
100
AcDbEntity
  8
1
  6
CONTINUOUS
 62
           7
100
AcDbLine
 10
323.157422001105
 20
204.999999999997
 11
427.157422001105
 21
204.999999999997
  0
LINE
  5
78
100
AcDbEntity
  8
1
  6
CONTINUOUS
 62
           7
100
AcDbLine
 10
1700.0
 20
605.0
 11
1700.0
 21
655.0
  0
LINE
  5
77
100
AcDbEntity
  8
1
  6
CONTINUOUS
 62
           7
100
AcDbLine
 10
1700.0
 20
655.0
 11
0.0
 21
655.0
  0
LINE
  5
76
100
AcDbEntity
  8
1
  6
CONTINUOUS
 62
           7
100
AcDbLine
 10
0.0
 20
655.0
 11
0.0
 21
605.0
  0
LINE
  5
75
100
AcDbEntity
  8
1
  6
CONTINUOUS
 62
           7
100
AcDbLine
 10
0.0
 20
605.0
 11
1700.0
 21
605.0
  0
LINE
  5
74
100
AcDbEntity
  8
1
  6
CONTINUOUS
 62
           7
100
AcDbLine
 10
1346.511860902121
 20
236.767133556659
 11
427.157422001105
 21
204.999999999997
  0
LINE
  5
73
100
AcDbEntity
  8
1
  6
CONTINUOUS
 62
           7
100
AcDbLine
 10
193.597562695469
 20
209.826450134161
 11
323.157422001105
 21
204.999999999997
  0
LINE
  5
72
100
AcDbEntity
  8
MITTELLINIEN
  6
DOT_CENTER
 62
           3
100
AcDbLine
 10
440.678018999994
 20
590.0
 11
311.010044999982
 21
590.0
  0
LINE
  5
71
100
AcDbEntity
  8
MITTELLINIEN
  6
DOT_CENTER
 62
           3
100
AcDbLine
 10
374.999999999979
 20
524.321980999999
 11
374.999999999979
 21
653.989954999999
  0
INSERT
  5
2B
100
AcDbEntity
  8
0
100
AcDbBlockReference
  2
WANNENF_SSE
 10
0.0
 20
0.0
  0
ENDBLK
  5
84
100
AcDbEntity
  8
0
100
AcDbBlockEnd
  0
BLOCK
  5
2D
100
AcDbEntity
  8
0
100
AcDbBlockBegin
  2
DLX
 70
           0
 10
0.0
 20
0.0
 30
0.0
  3
DLX
  1

  0
CIRCLE
  5
138
100
AcDbEntity
  8
1
  6
CONTINUOUS
 62
           3
100
AcDbCircle
 10
1355.894532900557
 20
414.660161535988
 40
5.972862778754
  0
CIRCLE
  5
137
100
AcDbEntity
  8
1
  6
CONTINUOUS
 62
           3
100
AcDbCircle
 10
1355.894532900557
 20
414.660161535988
 40
5.530127989696
  0
ARC
  5
136
100
AcDbEntity
  8
1
  6
CONTINUOUS
 62
           3
100
AcDbCircle
 10
1356.101351731937
 20
416.085293578613
 40
2.009798008862
100
AcDbArc
 50
-55.929988464569
 51
86.297888718233
  0
ARC
  5
135
100
AcDbEntity
  8
1
  6
CONTINUOUS
 62
           3
100
AcDbCircle
 10
1356.023033905924
 20
416.045399587784
 40
1.257687287767
100
AcDbArc
 50
-74.800419047104
 51
80.931395238879
  0
ARC
  5
134
100
AcDbEntity
  8
1
  6
CONTINUOUS
 62
           3
100
AcDbCircle
 10
1355.947851267726
 20
412.834413047054
 40
1.155889798233
100
AcDbArc
 50
0.985058170495
 51
82.918254632887
  0
ARC
  5
133
100
AcDbEntity
  8
1
  6
CONTINUOUS
 62
           3
100
AcDbCircle
 10
1356.673244454218
 20
413.143607339458
 40
1.391870091326
100
AcDbArc
 50
-1.298612665712
 51
66.544866494084
  0
LINE
  5
132
100
AcDbEntity
  8
1
  6
CONTINUOUS
 62
           3
100
AcDbLine
 10
1248.486881131938
 20
410.761269468015
 11
1248.191478044559
 21
411.759821529596
  0
LINE
  5
131
100
AcDbEntity
  8
1
  6
CONTINUOUS
 62
           3
100
AcDbLine
 10
1248.923560813505
 20
412.543578515564
 11
1248.191478044559
 21
411.759821529596
  0
LINE
  5
130
100
AcDbEntity
  8
1
  6
CONTINUOUS
 62
           3
100
AcDbLine
 10
1283.954584782176
 20
382.019082441759
 11
1287.338992273055
 21
395.832548802311
  0
LINE
  5
12F
100
AcDbEntity
  8
1
  6
CONTINUOUS
 62
           3
100
AcDbLine
 10
1279.766430626935
 20
382.019082441759
 11
1283.150838117951
 21
395.832548802311
  0
LINE
  5
12E
100
AcDbEntity
  8
1
  6
CONTINUOUS
 62
           3
100
AcDbLine
 10
1279.766430626935
 20
382.019082441759
 11
1283.954584782176
 21
382.019082441759
  0
LINE
  5
12D
100
AcDbEntity
  8
1
  6
CONTINUOUS
 62
           3
100
AcDbLine
 10
1278.682456567766
 20
377.594840017573
 11
1282.870610722955
 21
377.594840017573
  0
LINE
  5
12C
100
AcDbEntity
  8
1
  6
CONTINUOUS
 62
           3
100
AcDbLine
 10
1279.486203232059
 20
363.781373657232
 11
1285.768434464957
 21
363.781373657232
  0
LINE
  5
12B
100
AcDbEntity
  8
1
  6
CONTINUOUS
 62
           3
100
AcDbLine
 10
1283.150838117951
 20
395.832548802311
 11
1276.868606885086
 21
395.832548802311
  0
LINE
  5
12A
100
AcDbEntity
  8
1
  6
CONTINUOUS
 62
           3
100
AcDbLine
 10
1314.561994281909
 20
395.832548802311
 11
1306.709205240892
 21
363.781373657232
  0
LINE
  5
129
100
AcDbEntity
  8
1
  6
CONTINUOUS
 62
           3
100
AcDbLine
 10
1307.195788989913
 20
391.408306378071
 11
1301.510948067189
 21
368.205616081414
  0
LINE
  5
128
100
AcDbEntity
  8
1
  6
CONTINUOUS
 62
           3
100
AcDbLine
 10
1303.007634834662
 20
391.408306378071
 11
1307.195788989913
 21
391.408306378071
  0
LINE
  5
127
100
AcDbEntity
  8
1
  6
CONTINUOUS
 62
           3
100
AcDbLine
 10
1314.561994281909
 20
395.832548802311
 11
1297.80937766108
 21
395.832548802311
  0
LINE
  5
126
100
AcDbEntity
  8
1
  6
CONTINUOUS
 62
           3
100
AcDbLine
 10
1297.322793912087
 20
368.205616081414
 11
1303.007634834662
 21
391.408306378071
  0
LINE
  5
125
100
AcDbEntity
  8
1
  6
CONTINUOUS
 62
           3
100
AcDbLine
 10
1297.80937766108
 20
395.832548802311
 11
1289.956588620082
 21
363.781373657232
  0
LINE
  5
124
100
AcDbEntity
  8
1
  6
CONTINUOUS
 62
           3
100
AcDbLine
 10
1301.510948067189
 20
368.205616081414
 11
1297.322793912087
 21
368.205616081414
  0
LINE
  5
123
100
AcDbEntity
  8
1
  6
CONTINUOUS
 62
           3
100
AcDbLine
 10
1289.956588620082
 20
363.781373657232
 11
1306.709205240892
 21
363.781373657232
  0
LINE
  5
122
100
AcDbEntity
  8
1
  6
CONTINUOUS
 62
           3
100
AcDbLine
 10
1293.621223505972
 20
395.832548802311
 11
1287.338992273055
 21
395.832548802311
  0
LINE
  5
121
100
AcDbEntity
  8
1
  6
CONTINUOUS
 62
           3
100
AcDbLine
 10
1276.868606885086
 20
395.832548802311
 11
1269.015817844093
 21
363.781373657232
  0
LINE
  5
120
100
AcDbEntity
  8
1
  6
CONTINUOUS
 62
           3
100
AcDbLine
 10
1275.298049076881
 20
363.781373657232
 11
1278.682456567766
 21
377.594840017573
  0
LINE
  5
11F
100
AcDbEntity
  8
1
  6
CONTINUOUS
 62
           3
100
AcDbLine
 10
1279.486203232059
 20
363.781373657232
 11
1282.870610722955
 21
377.594840017573
  0
LINE
  5
11E
100
AcDbEntity
  8
1
  6
CONTINUOUS
 62
           3
100
AcDbLine
 10
1285.768434464957
 20
363.781373657232
 11
1293.621223505972
 21
395.832548802311
  0
LINE
  5
11D
100
AcDbEntity
  8
1
  6
CONTINUOUS
 62
           3
100
AcDbLine
 10
1269.015817844093
 20
363.781373657232
 11
1275.298049076881
 21
363.781373657232
  0
LINE
  5
11C
100
AcDbEntity
  8
1
  6
CONTINUOUS
 62
           3
100
AcDbLine
 10
1263.688286349136
 20
384.771942741645
 11
1269.970517581943
 21
384.771942741645
  0
LINE
  5
11B
100
AcDbEntity
  8
1
  6
CONTINUOUS
 62
           3
100
AcDbLine
 10
1265.31424743793
 20
391.408306378071
 11
1263.688286349136
 21
384.771942741645
  0
LINE
  5
11A
100
AcDbEntity
  8
1
  6
CONTINUOUS
 62
           3
100
AcDbLine
 10
1261.126093282739
 20
391.408306378071
 11
1265.31424743793
 21
391.408306378071
  0
LINE
  5
119
100
AcDbEntity
  8
1
  6
CONTINUOUS
 62
           3
100
AcDbLine
 10
1255.441252360108
 20
368.205616081414
 11
1261.126093282739
 21
391.408306378071
  0
LINE
  5
118
100
AcDbEntity
  8
1
  6
CONTINUOUS
 62
           3
100
AcDbLine
 10
1259.629406515311
 20
368.205616081414
 11
1255.441252360108
 21
368.205616081414
  0
LINE
  5
117
100
AcDbEntity
  8
1
  6
CONTINUOUS
 62
           3
100
AcDbLine
 10
1261.255367604098
 20
374.841979717841
 11
1259.629406515311
 21
368.205616081414
  0
LINE
  5
116
100
AcDbEntity
  8
1
  6
CONTINUOUS
 62
           3
100
AcDbLine
 10
1267.537598836886
 20
374.841979717841
 11
1261.255367604098
 21
374.841979717841
  0
LINE
  5
115
100
AcDbEntity
  8
1
  6
CONTINUOUS
 62
           3
100
AcDbLine
 10
1264.827663688912
 20
363.781373657232
 11
1267.537598836886
 21
374.841979717841
  0
LINE
  5
114
100
AcDbEntity
  8
1
  6
CONTINUOUS
 62
           3
100
AcDbLine
 10
1248.075047068159
 20
363.781373657232
 11
1264.827663688912
 21
363.781373657232
  0
LINE
  5
113
100
AcDbEntity
  8
1
  6
CONTINUOUS
 62
           3
100
AcDbLine
 10
1255.927836109152
 20
395.832548802311
 11
1248.075047068159
 21
363.781373657232
  0
LINE
  5
112
100
AcDbEntity
  8
1
  6
CONTINUOUS
 62
           3
100
AcDbLine
 10
1272.680452729872
 20
395.832548802311
 11
1255.927836109152
 21
395.832548802311
  0
LINE
  5
111
100
AcDbEntity
  8
1
  6
CONTINUOUS
 62
           3
100
AcDbLine
 10
1269.970517581943
 20
384.771942741645
 11
1272.680452729872
 21
395.832548802311
  0
LINE
  5
110
100
AcDbEntity
  8
1
  6
CONTINUOUS
 62
           3
100
AcDbLine
 10
1250.655707894776
 20
391.408306378071
 11
1251.739681953935
 21
395.832548802311
  0
LINE
  5
10F
100
AcDbEntity
  8
1
  6
CONTINUOUS
 62
           3
100
AcDbLine
 10
1240.185322506797
 20
391.408306378071
 11
1250.655707894776
 21
391.408306378071
  0
LINE
  5
10E
100
AcDbEntity
  8
1
  6
CONTINUOUS
 62
           3
100
AcDbLine
 10
1237.752403761783
 20
381.478343354185
 11
1240.185322506797
 21
391.408306378071
  0
LINE
  5
10D
100
AcDbEntity
  8
1
  6
CONTINUOUS
 62
           3
100
AcDbLine
 10
1248.222789149847
 20
381.478343354185
 11
1237.752403761783
 21
381.478343354185
  0
LINE
  5
10C
100
AcDbEntity
  8
1
  6
CONTINUOUS
 62
           3
100
AcDbLine
 10
1243.886892912923
 20
363.781373657232
 11
1248.222789149847
 21
381.478343354185
  0
LINE
  5
10B
100
AcDbEntity
  8
1
  6
CONTINUOUS
 62
           3
100
AcDbLine
 10
1227.1342762921
 20
363.781373657232
 11
1243.886892912923
 21
363.781373657232
  0
LINE
  5
10A
100
AcDbEntity
  8
1
  6
CONTINUOUS
 62
           3
100
AcDbLine
 10
1228.218250351409
 20
368.205616081414
 11
1227.1342762921
 21
363.781373657232
  0
LINE
  5
109
100
AcDbEntity
  8
1
  6
CONTINUOUS
 62
           3
100
AcDbLine
 10
1238.688635739319
 20
368.205616081414
 11
1228.218250351409
 21
368.205616081414
  0
LINE
  5
108
100
AcDbEntity
  8
1
  6
CONTINUOUS
 62
           3
100
AcDbLine
 10
1240.856583857737
 20
377.054100930029
 11
1238.688635739319
 21
368.205616081414
  0
LINE
  5
107
100
AcDbEntity
  8
1
  6
CONTINUOUS
 62
           3
100
AcDbLine
 10
1230.386198469771
 20
377.054100930029
 11
1240.856583857737
 21
377.054100930029
  0
LINE
  5
106
100
AcDbEntity
  8
1
  6
CONTINUOUS
 62
           3
100
AcDbLine
 10
1234.987065333163
 20
395.832548802311
 11
1230.386198469771
 21
377.054100930029
  0
LINE
  5
105
100
AcDbEntity
  8
1
  6
CONTINUOUS
 62
           3
100
AcDbLine
 10
1251.739681953935
 20
395.832548802311
 11
1234.987065333163
 21
395.832548802311
  0
LINE
  5
104
100
AcDbEntity
  8
1
  6
CONTINUOUS
 62
           3
100
AcDbLine
 10
1230.798911178
 20
395.832548802311
 11
1222.946122136986
 21
363.781373657232
  0
LINE
  5
103
100
AcDbEntity
  8
1
  6
CONTINUOUS
 62
           3
100
AcDbLine
 10
1224.516679945194
 20
395.832548802311
 11
1230.798911178
 21
395.832548802311
  0
LINE
  5
102
100
AcDbEntity
  8
1
  6
CONTINUOUS
 62
           3
100
AcDbLine
 10
1222.946122136986
 20
363.781373657232
 11
1205.146466977395
 21
363.781373657232
  0
LINE
  5
101
100
AcDbEntity
  8
1
  6
CONTINUOUS
 62
           3
100
AcDbLine
 10
1217.747864963389
 20
368.205616081414
 11
1224.516679945194
 21
395.832548802311
  0
LINE
  5
100
100
AcDbEntity
  8
1
  6
CONTINUOUS
 62
           3
100
AcDbLine
 10
1212.512672269404
 20
368.205616081414
 11
1217.747864963389
 21
368.205616081414
  0
LINE
  5
FF
100
AcDbEntity
  8
1
  6
CONTINUOUS
 62
           3
100
AcDbLine
 10
1219.281487251199
 20
395.832548802311
 11
1212.512672269404
 21
368.205616081414
  0
LINE
  5
FE
100
AcDbEntity
  8
1
  6
CONTINUOUS
 62
           3
100
AcDbLine
 10
1212.999256018389
 20
395.832548802311
 11
1219.281487251199
 21
395.832548802311
  0
LINE
  5
FD
100
AcDbEntity
  8
1
  6
CONTINUOUS
 62
           3
100
AcDbLine
 10
1205.146466977395
 20
363.781373657232
 11
1212.999256018389
 21
395.832548802311
  0
LINE
  5
FC
100
AcDbEntity
  8
1
  6
CONTINUOUS
 62
           3
100
AcDbLine
 10
1200.958312822269
 20
363.781373657232
 11
1183.158657662621
 21
363.781373657232
  0
LINE
  5
FB
100
AcDbEntity
  8
1
  6
CONTINUOUS
 62
           3
100
AcDbLine
 10
1211.521037011188
 20
406.893154862895
 11
1200.958312822269
 21
363.781373657232
  0
LINE
  5
FA
100
AcDbEntity
  8
1
  6
CONTINUOUS
 62
           3
100
AcDbLine
 10
1187.547709933896
 20
406.893154862895
 11
1211.521037011188
 21
406.893154862895
  0
LINE
  5
F9
100
AcDbEntity
  8
1
  6
CONTINUOUS
 62
           3
100
AcDbLine
 10
1186.192742359911
 20
401.362851832637
 11
1187.547709933896
 21
406.893154862895
  0
LINE
  5
F8
100
AcDbEntity
  8
1
  6
CONTINUOUS
 62
           3
100
AcDbLine
 10
1203.883838204445
 20
401.362851832637
 11
1186.192742359911
 21
401.362851832637
  0
LINE
  5
F7
100
AcDbEntity
  8
1
  6
CONTINUOUS
 62
           3
100
AcDbLine
 10
1195.760055648563
 20
368.205616081414
 11
1203.883838204445
 21
401.362851832637
  0
LINE
  5
F6
100
AcDbEntity
  8
1
  6
CONTINUOUS
 62
           3
100
AcDbLine
 10
1190.524862954683
 20
368.205616081414
 11
1195.760055648563
 21
368.205616081414
  0
LINE
  5
F5
100
AcDbEntity
  8
1
  6
CONTINUOUS
 62
           3
100
AcDbLine
 10
1197.293677936374
 20
395.832548802311
 11
1190.524862954683
 21
368.205616081414
  0
LINE
  5
F4
100
AcDbEntity
  8
1
  6
CONTINUOUS
 62
           3
100
AcDbLine
 10
1191.011446703676
 20
395.832548802311
 11
1197.293677936374
 21
395.832548802311
  0
LINE
  5
F3
100
AcDbEntity
  8
1
  6
CONTINUOUS
 62
           3
100
AcDbLine
 10
1183.158657662621
 20
363.781373657232
 11
1191.011446703676
 21
395.832548802311
  0
LINE
  5
F2
100
AcDbEntity
  8
1
  6
CONTINUOUS
 62
           3
100
AcDbLine
 10
1318.278338896136
 20
369.975313051142
 11
1327.323499402226
 21
406.893154862895
  0
LINE
  5
F1
100
AcDbEntity
  8
1
  6
CONTINUOUS
 62
           3
100
AcDbLine
 10
1327.323499402226
 20
406.893154862895
 11
1321.46008358496
 21
406.893154862895
  0
LINE
  5
F0
100
AcDbEntity
  8
1
  6
CONTINUOUS
 62
           3
100
AcDbLine
 10
1321.46008358496
 20
406.893154862895
 11
1310.897359396019
 21
363.781373657232
  0
LINE
  5
EF
100
AcDbEntity
  8
1
  6
CONTINUOUS
 62
           3
100
AcDbLine
 10
1328.801718409588
 20
395.832548802311
 11
1323.116877486899
 21
372.629858505709
  0
LINE
  5
EE
100
AcDbEntity
  8
1
  6
CONTINUOUS
 62
           3
100
AcDbLine
 10
1323.116877486899
 20
372.629858505709
 11
1338.82245556882
 21
372.629858505709
  0
LINE
  5
ED
100
AcDbEntity
  8
1
  6
CONTINUOUS
 62
           3
100
AcDbLine
 10
1338.82245556882
 20
372.629858505709
 11
1344.507296491428
 21
395.832548802311
  0
LINE
  5
EC
100
AcDbEntity
  8
1
  6
CONTINUOUS
 62
           3
100
AcDbLine
 10
1344.507296491428
 20
395.832548802311
 11
1339.272103797506
 21
395.832548802311
  0
LINE
  5
EB
100
AcDbEntity
  8
1
  6
CONTINUOUS
 62
           3
100
AcDbLine
 10
1339.272103797506
 20
395.832548802311
 11
1334.67123693411
 21
377.054100930029
  0
LINE
  5
EA
100
AcDbEntity
  8
1
  6
CONTINUOUS
 62
           3
100
AcDbLine
 10
1334.67123693411
 20
377.054100930029
 11
1329.436044240158
 21
377.054100930029
  0
LINE
  5
E9
100
AcDbEntity
  8
1
  6
CONTINUOUS
 62
           3
100
AcDbLine
 10
1329.436044240158
 20
377.054100930029
 11
1334.036911103511
 21
395.832548802311
  0
LINE
  5
E8
100
AcDbEntity
  8
1
  6
CONTINUOUS
 62
           3
100
AcDbLine
 10
1334.036911103511
 20
395.832548802311
 11
1328.801718409588
 21
395.832548802311
  0
LINE
  5
E7
100
AcDbEntity
  8
1
  6
CONTINUOUS
 62
           3
100
AcDbLine
 10
1351.065635247569
 20
395.832548802311
 11
1347.020188984554
 21
395.832548802311
  0
LINE
  5
E6
100
AcDbEntity
  8
1
  6
CONTINUOUS
 62
           3
100
AcDbLine
 10
1347.020188984554
 20
395.832548802311
 11
1351.142484506751
 21
385.196674875894
  0
LINE
  5
E5
100
AcDbEntity
  8
1
  6
CONTINUOUS
 62
           3
100
AcDbLine
 10
1351.142484506751
 20
385.196674875894
 11
1341.335348061961
 21
372.629858505709
  0
LINE
  5
E4
100
AcDbEntity
  8
1
  6
CONTINUOUS
 62
           3
100
AcDbLine
 10
1341.335348061961
 20
372.629858505709
 11
1345.380794324959
 21
372.629858505709
  0
LINE
  5
E3
100
AcDbEntity
  8
1
  6
CONTINUOUS
 62
           3
100
AcDbLine
 10
1345.380794324959
 20
372.629858505709
 11
1352.484926905061
 21
381.733059027735
  0
LINE
  5
E2
100
AcDbEntity
  8
1
  6
CONTINUOUS
 62
           3
100
AcDbLine
 10
1352.484926905061
 20
381.733059027735
 11
1356.013182599744
 21
372.629858505709
  0
LINE
  5
E1
100
AcDbEntity
  8
1
  6
CONTINUOUS
 62
           3
100
AcDbLine
 10
1356.013182599744
 20
372.629858505709
 11
1360.058628862792
 21
372.629858505709
  0
LINE
  5
E0
100
AcDbEntity
  8
1
  6
CONTINUOUS
 62
           3
100
AcDbLine
 10
1360.058628862792
 20
372.629858505709
 11
1355.187930769789
 21
385.196674875835
  0
LINE
  5
DF
100
AcDbEntity
  8
1
  6
CONTINUOUS
 62
           3
100
AcDbLine
 10
1355.187930769789
 20
385.196674875835
 11
1363.488160814872
 21
395.832548802311
  0
LINE
  5
DE
100
AcDbEntity
  8
1
  6
CONTINUOUS
 62
           3
100
AcDbLine
 10
1363.488160814872
 20
395.832548802311
 11
1359.442714551813
 21
395.832548802311
  0
LINE
  5
DD
100
AcDbEntity
  8
1
  6
CONTINUOUS
 62
           3
100
AcDbLine
 10
1359.442714551813
 20
395.832548802311
 11
1353.845488371528
 21
388.660290724056
  0
LINE
  5
DC
100
AcDbEntity
  8
1
  6
CONTINUOUS
 62
           3
100
AcDbLine
 10
1353.845488371528
 20
388.660290724056
 11
1351.065635247569
 21
395.832548802311
  0
LINE
  5
DB
100
AcDbEntity
  8
1
  6
CONTINUOUS
 62
           3
100
AcDbLine
 10
1361.087488448308
 20
369.975313051142
 11
1363.488160814828
 21
363.781373657232
  0
LINE
  5
DA
100
AcDbEntity
  8
1
  6
CONTINUOUS
 62
           3
100
AcDbLine
 10
1361.087488448308
 20
369.975313051142
 11
1318.278338896136
 21
369.975313051142
  0
LINE
  5
D9
100
AcDbEntity
  8
1
  6
CONTINUOUS
 62
           3
100
AcDbLine
 10
1363.488160814828
 20
363.781373657232
 11
1310.897359396019
 21
363.781373657232
  0
LINE
  5
D8
100
AcDbEntity
  8
1
  6
CONTINUOUS
 62
           3
100
AcDbLine
 10
1219.897345321588
 20
406.893154862895
 11
1223.14926749907
 21
420.165882135553
  0
LINE
  5
D7
100
AcDbEntity
  8
1
  6
CONTINUOUS
 62
           3
100
AcDbLine
 10
1223.14926749907
 20
420.165882135553
 11
1235.713729964786
 21
420.165882135553
  0
LINE
  5
D6
100
AcDbEntity
  8
1
  6
CONTINUOUS
 62
           3
100
AcDbLine
 10
1235.713729964786
 20
420.165882135553
 11
1232.461807787112
 21
406.893154862895
  0
LINE
  5
D5
100
AcDbEntity
  8
1
  6
CONTINUOUS
 62
           3
100
AcDbLine
 10
1232.461807787112
 20
406.893154862895
 11
1219.897345321588
 21
406.893154862895
  0
LINE
  5
D4
100
AcDbEntity
  8
1
  6
CONTINUOUS
 62
           3
100
AcDbLine
 10
1230.909717739109
 20
409.105276075025
 11
1222.533409428754
 21
409.105276075025
  0
LINE
  5
D3
100
AcDbEntity
  8
1
  6
CONTINUOUS
 62
           3
100
AcDbLine
 10
1233.077665857584
 20
417.953760923501
 11
1230.909717739109
 21
409.105276075025
  0
LINE
  5
D2
100
AcDbEntity
  8
1
  6
CONTINUOUS
 62
           3
100
AcDbLine
 10
1224.701357547096
 20
417.953760923501
 11
1233.077665857584
 21
417.953760923501
  0
LINE
  5
D1
100
AcDbEntity
  8
1
  6
CONTINUOUS
 62
           3
100
AcDbLine
 10
1222.533409428754
 20
409.105276075025
 11
1224.701357547096
 21
417.953760923501
  0
LINE
  5
D0
100
AcDbEntity
  8
1
  6
CONTINUOUS
 62
           3
100
AcDbLine
 10
1238.226622457779
 20
420.165882135553
 11
1234.974700280242
 21
406.893154862895
  0
LINE
  5
CF
100
AcDbEntity
  8
1
  6
CONTINUOUS
 62
           3
100
AcDbLine
 10
1238.226622457779
 20
420.165882135553
 11
1250.791084923359
 21
420.165882135553
  0
LINE
  5
CE
100
AcDbEntity
  8
1
  6
CONTINUOUS
 62
           3
100
AcDbLine
 10
1250.791084923359
 20
420.165882135553
 11
1248.923560813505
 21
412.543578515564
  0
LINE
  5
CD
100
AcDbEntity
  8
1
  6
CONTINUOUS
 62
           3
100
AcDbLine
 10
1247.539162745827
 20
406.893154862895
 11
1245.445085668186
 21
406.893154862895
  0
LINE
  5
CC
100
AcDbEntity
  8
1
  6
CONTINUOUS
 62
           3
100
AcDbLine
 10
1245.445085668186
 20
406.893154862895
 11
1246.529059727559
 21
411.317397287076
  0
LINE
  5
CB
100
AcDbEntity
  8
1
  6
CONTINUOUS
 62
           3
100
AcDbLine
 10
1246.529059727559
 20
411.317397287076
 11
1238.152751417029
 21
411.317397287076
  0
LINE
  5
CA
100
AcDbEntity
  8
1
  6
CONTINUOUS
 62
           3
100
AcDbLine
 10
1238.694738446622
 20
413.529518499265
 11
1247.071046757002
 21
413.529518499265
  0
LINE
  5
C9
100
AcDbEntity
  8
1
  6
CONTINUOUS
 62
           3
100
AcDbLine
 10
1247.071046757002
 20
413.529518499265
 11
1248.155020816323
 21
417.953760923501
  0
LINE
  5
C8
100
AcDbEntity
  8
1
  6
CONTINUOUS
 62
           3
100
AcDbLine
 10
1248.155020816323
 20
417.953760923501
 11
1239.778712505805
 21
417.953760923501
  0
LINE
  5
C7
100
AcDbEntity
  8
1
  6
CONTINUOUS
 62
           3
100
AcDbLine
 10
1239.778712505805
 20
417.953760923501
 11
1238.694738446622
 21
413.529518499265
  0
LINE
  5
C6
100
AcDbEntity
  8
1
  6
CONTINUOUS
 62
           3
100
AcDbLine
 10
1248.486881131938
 20
410.761269468015
 11
1247.539162745827
 21
406.893154862895
  0
LINE
  5
C5
100
AcDbEntity
  8
1
  6
CONTINUOUS
 62
           3
100
AcDbLine
 10
1234.974700280242
 20
406.893154862895
 11
1237.068777357918
 21
406.893154862895
  0
LINE
  5
C4
100
AcDbEntity
  8
1
  6
CONTINUOUS
 62
           3
100
AcDbLine
 10
1237.068777357918
 20
406.893154862895
 11
1238.152751417029
 21
411.317397287076
  0
LINE
  5
C3
100
AcDbEntity
  8
1
  6
CONTINUOUS
 62
           3
100
AcDbLine
 10
1255.398054494086
 20
420.165882135553
 11
1253.303977416522
 21
420.165882135553
  0
LINE
  5
C2
100
AcDbEntity
  8
1
  6
CONTINUOUS
 62
           3
100
AcDbLine
 10
1253.303977416522
 20
420.165882135553
 11
1250.052055238957
 21
406.893154862895
  0
LINE
  5
C1
100
AcDbEntity
  8
1
  6
CONTINUOUS
 62
           3
100
AcDbLine
 10
1250.052055238957
 20
406.893154862895
 11
1252.146132316676
 21
406.893154862895
  0
LINE
  5
C0
100
AcDbEntity
  8
1
  6
CONTINUOUS
 62
           3
100
AcDbLine
 10
1252.146132316676
 20
406.893154862895
 11
1255.398054494086
 21
420.165882135553
  0
LINE
  5
BF
100
AcDbEntity
  8
1
  6
CONTINUOUS
 62
           3
100
AcDbLine
 10
1254.659024809661
 20
406.893154862895
 11
1257.910946987205
 21
420.165882135553
  0
LINE
  5
BE
100
AcDbEntity
  8
1
  6
CONTINUOUS
 62
           3
100
AcDbLine
 10
1257.910946987205
 20
420.165882135553
 11
1270.475409452795
 21
420.165882135553
  0
LINE
  5
BD
100
AcDbEntity
  8
1
  6
CONTINUOUS
 62
           3
100
AcDbLine
 10
1270.475409452795
 20
420.165882135553
 11
1269.337236690668
 21
415.520427590124
  0
LINE
  5
BC
100
AcDbEntity
  8
1
  6
CONTINUOUS
 62
           3
100
AcDbLine
 10
1267.223487275273
 20
406.893154862895
 11
1254.659024809661
 21
406.893154862895
  0
LINE
  5
BB
100
AcDbEntity
  8
1
  6
CONTINUOUS
 62
           3
100
AcDbLine
 10
1265.671397227226
 20
409.105276075025
 11
1257.295088916897
 21
409.105276075025
  0
LINE
  5
BA
100
AcDbEntity
  8
1
  6
CONTINUOUS
 62
           3
100
AcDbLine
 10
1267.839345345521
 20
417.953760923501
 11
1267.243159613142
 21
415.520427590124
  0
LINE
  5
B9
100
AcDbEntity
  8
1
  6
CONTINUOUS
 62
           3
100
AcDbLine
 10
1259.463037035223
 20
417.953760923501
 11
1267.839345345521
 21
417.953760923501
  0
LINE
  5
B8
100
AcDbEntity
  8
1
  6
CONTINUOUS
 62
           3
100
AcDbLine
 10
1257.295088916897
 20
409.105276075025
 11
1259.463037035223
 21
417.953760923501
  0
LINE
  5
B7
100
AcDbEntity
  8
1
  6
CONTINUOUS
 62
           3
100
AcDbLine
 10
1268.849448364046
 20
413.529518499265
 11
1262.567217131239
 21
413.529518499265
  0
LINE
  5
B6
100
AcDbEntity
  8
1
  6
CONTINUOUS
 62
           3
100
AcDbLine
 10
1268.849448364046
 20
413.529518499265
 11
1267.223487275273
 21
406.893154862895
  0
LINE
  5
B5
100
AcDbEntity
  8
1
  6
CONTINUOUS
 62
           3
100
AcDbLine
 10
1262.567217131239
 20
413.529518499265
 11
1262.025230101593
 21
411.317397287076
  0
LINE
  5
B4
100
AcDbEntity
  8
1
  6
CONTINUOUS
 62
           3
100
AcDbLine
 10
1262.025230101593
 20
411.317397287076
 11
1266.213384256992
 21
411.317397287076
  0
LINE
  5
B3
100
AcDbEntity
  8
1
  6
CONTINUOUS
 62
           3
100
AcDbLine
 10
1266.213384256992
 20
411.317397287076
 11
1265.671397227226
 21
409.105276075025
  0
LINE
  5
B2
100
AcDbEntity
  8
1
  6
CONTINUOUS
 62
           3
100
AcDbLine
 10
1267.243159613142
 20
415.520427590124
 11
1269.337236690668
 21
415.520427590124
  0
LINE
  5
B1
100
AcDbEntity
  8
1
  6
CONTINUOUS
 62
           3
100
AcDbLine
 10
1269.736379768389
 20
406.893154862895
 11
1271.830456845949
 21
406.893154862895
  0
LINE
  5
B0
100
AcDbEntity
  8
1
  6
CONTINUOUS
 62
           3
100
AcDbLine
 10
1271.830456845949
 20
406.893154862895
 11
1275.082379023519
 21
420.165882135553
  0
LINE
  5
AF
100
AcDbEntity
  8
1
  6
CONTINUOUS
 62
           3
100
AcDbLine
 10
1272.988301945954
 20
420.165882135553
 11
1269.736379768389
 21
406.893154862895
  0
LINE
  5
AE
100
AcDbEntity
  8
1
  6
CONTINUOUS
 62
           3
100
AcDbLine
 10
1275.082379023519
 20
420.165882135553
 11
1272.988301945954
 21
420.165882135553
  0
LINE
  5
AD
100
AcDbEntity
  8
1
  6
CONTINUOUS
 62
           3
100
AcDbLine
 10
1274.343349339119
 20
406.893154862895
 11
1277.595271516634
 21
420.165882135553
  0
LINE
  5
AC
100
AcDbEntity
  8
1
  6
CONTINUOUS
 62
           3
100
AcDbLine
 10
1277.595271516634
 20
420.165882135553
 11
1280.736387132975
 21
420.165882135553
  0
LINE
  5
AB
100
AcDbEntity
  8
1
  6
CONTINUOUS
 62
           3
100
AcDbLine
 10
1280.736387132975
 20
420.165882135553
 11
1285.220224999252
 21
408.552245771978
  0
LINE
  5
AA
100
AcDbEntity
  8
1
  6
CONTINUOUS
 62
           3
100
AcDbLine
 10
1285.220224999252
 20
408.552245771978
 11
1288.065656904604
 21
420.165882135553
  0
LINE
  5
A9
100
AcDbEntity
  8
1
  6
CONTINUOUS
 62
           3
100
AcDbLine
 10
1288.065656904604
 20
420.165882135553
 11
1290.159733982217
 21
420.165882135553
  0
LINE
  5
A8
100
AcDbEntity
  8
1
  6
CONTINUOUS
 62
           3
100
AcDbLine
 10
1290.159733982217
 20
420.165882135553
 11
1286.907811804597
 21
406.893154862895
  0
LINE
  5
A7
100
AcDbEntity
  8
1
  6
CONTINUOUS
 62
           3
100
AcDbLine
 10
1286.907811804597
 20
406.893154862895
 11
1283.665133315828
 21
406.893154862895
  0
LINE
  5
A6
100
AcDbEntity
  8
1
  6
CONTINUOUS
 62
           3
100
AcDbLine
 10
1283.665133315828
 20
406.893154862895
 11
1279.883976980118
 21
416.686768286767
  0
LINE
  5
A5
100
AcDbEntity
  8
1
  6
CONTINUOUS
 62
           3
100
AcDbLine
 10
1279.883976980118
 20
416.686768286767
 11
1279.243428713608
 21
418.34585919583
  0
LINE
  5
A4
100
AcDbEntity
  8
1
  6
CONTINUOUS
 62
           3
100
AcDbLine
 10
1279.243428713608
 20
418.34585919583
 11
1276.43742641668
 21
406.893154862895
  0
LINE
  5
A3
100
AcDbEntity
  8
1
  6
CONTINUOUS
 62
           3
100
AcDbLine
 10
1276.43742641668
 20
406.893154862895
 11
1274.343349339119
 21
406.893154862895
  0
LINE
  5
A2
100
AcDbEntity
  8
1
  6
CONTINUOUS
 62
           3
100
AcDbLine
 10
1289.420704297714
 20
406.893154862895
 11
1296.932134576611
 21
420.165882135553
  0
LINE
  5
A1
100
AcDbEntity
  8
1
  6
CONTINUOUS
 62
           3
100
AcDbLine
 10
1296.932134576611
 20
420.165882135553
 11
1300.977580839585
 21
420.165882135553
  0
LINE
  5
A0
100
AcDbEntity
  8
1
  6
CONTINUOUS
 62
           3
100
AcDbLine
 10
1300.977580839585
 20
420.165882135553
 11
1301.985166763347
 21
406.893154862895
  0
LINE
  5
9F
100
AcDbEntity
  8
1
  6
CONTINUOUS
 62
           3
100
AcDbLine
 10
1301.985166763347
 20
406.893154862895
 11
1299.955484600278
 21
406.893154862895
  0
LINE
  5
9E
100
AcDbEntity
  8
1
  6
CONTINUOUS
 62
           3
100
AcDbLine
 10
1299.955484600278
 20
406.893154862895
 11
1299.787553613011
 21
409.105276075025
  0
LINE
  5
9D
100
AcDbEntity
  8
1
  6
CONTINUOUS
 62
           3
100
AcDbLine
 10
1299.787553613011
 20
409.105276075025
 11
1293.051406332647
 21
409.105276075025
  0
LINE
  5
9C
100
AcDbEntity
  8
1
  6
CONTINUOUS
 62
           3
100
AcDbLine
 10
1293.051406332647
 20
409.105276075025
 11
1291.799501286284
 21
406.893154862895
  0
LINE
  5
9B
100
AcDbEntity
  8
1
  6
CONTINUOUS
 62
           3
100
AcDbLine
 10
1291.799501286284
 20
406.893154862895
 11
1289.420704297714
 21
406.893154862895
  0
LINE
  5
9A
100
AcDbEntity
  8
1
  6
CONTINUOUS
 62
           3
100
AcDbLine
 10
1294.303311379179
 20
411.317397287076
 11
1299.619622625689
 21
411.317397287076
  0
LINE
  5
99
100
AcDbEntity
  8
1
  6
CONTINUOUS
 62
           3
100
AcDbLine
 10
1299.619622625689
 20
411.317397287076
 11
1299.115829663835
 21
417.953760923501
  0
LINE
  5
98
100
AcDbEntity
  8
1
  6
CONTINUOUS
 62
           3
100
AcDbLine
 10
1299.115829663835
 20
417.953760923501
 11
1298.059026518544
 21
417.953760923501
  0
LINE
  5
97
100
AcDbEntity
  8
1
  6
CONTINUOUS
 62
           3
100
AcDbLine
 10
1294.303311379179
 20
411.317397287076
 11
1298.059026518544
 21
417.953760923501
  0
LINE
  5
96
100
AcDbEntity
  8
1
  6
CONTINUOUS
 62
           3
100
AcDbLine
 10
1307.749981434036
 20
420.165882135553
 11
1304.498059256468
 21
406.893154862895
  0
LINE
  5
95
100
AcDbEntity
  8
1
  6
CONTINUOUS
 62
           3
100
AcDbLine
 10
1304.498059256468
 20
406.893154862895
 11
1317.062521722046
 21
406.893154862895
  0
LINE
  5
94
100
AcDbEntity
  8
1
  6
CONTINUOUS
 62
           3
100
AcDbLine
 10
1317.062521722046
 20
406.893154862895
 11
1317.604508751709
 21
409.105276075025
  0
LINE
  5
93
100
AcDbEntity
  8
1
  6
CONTINUOUS
 62
           3
100
AcDbLine
 10
1317.604508751709
 20
409.105276075025
 11
1307.134123363689
 21
409.105276075025
  0
LINE
  5
92
100
AcDbEntity
  8
1
  6
CONTINUOUS
 62
           3
100
AcDbLine
 10
1307.134123363689
 20
409.105276075025
 11
1309.844058511651
 21
420.165882135553
  0
LINE
  5
91
100
AcDbEntity
  8
1
  6
CONTINUOUS
 62
           3
100
AcDbLine
 10
1309.844058511651
 20
420.165882135553
 11
1307.749981434036
 21
420.165882135553
  0
LINE
  5
90
100
AcDbEntity
  8
1
  6
CONTINUOUS
 62
           3
100
AcDbLine
 10
1354.365293798321
 20
413.981484871074
 11
1354.365293798321
 21
411.232429445515
  0
LINE
  5
8F
100
AcDbEntity
  8
1
  6
CONTINUOUS
 62
           3
100
AcDbLine
 10
1353.492846099204
 20
411.232429445515
 11
1353.492846099204
 21
418.090897620689
  0
LINE
  5
8E
100
AcDbEntity
  8
1
  6
CONTINUOUS
 62
           3
100
AcDbLine
 10
1353.492846099204
 20
418.090897620689
 11
1355.934765958444
 21
418.090897620689
  0
LINE
  5
8D
100
AcDbEntity
  8
1
  6
CONTINUOUS
 62
           3
100
AcDbLine
 10
1355.934765958444
 20
418.090897620689
 11
1356.231122540798
 21
418.090897620689
  0
LINE
  5
8C
100
AcDbEntity
  8
1
  6
CONTINUOUS
 62
           3
100
AcDbLine
 10
1358.064757055362
 20
413.112063211859
 11
1358.064757055362
 21
411.232429445515
  0
LINE
  5
8B
100
AcDbEntity
  8
1
  6
CONTINUOUS
 62
           3
100
AcDbLine
 10
1358.064757055362
 20
411.232429445515
 11
1357.103570239858
 21
411.232429445515
  0
LINE
  5
8A
100
AcDbEntity
  8
1
  6
CONTINUOUS
 62
           3
100
AcDbLine
 10
1357.103570239858
 20
411.232429445515
 11
1357.103570239858
 21
412.854284713132
  0
LINE
  5
89
100
AcDbEntity
  8
1
  6
CONTINUOUS
 62
           3
100
AcDbLine
 10
1356.090355499938
 20
413.981484871074
 11
1354.365293798321
 21
413.981484871074
  0
LINE
  5
88
100
AcDbEntity
  8
1
  6
CONTINUOUS
 62
           3
100
AcDbLine
 10
1354.365293798321
 20
411.232429445515
 11
1353.492846099204
 21
411.232429445515
  0
LINE
  5
87
100
AcDbEntity
  8
1
  6
CONTINUOUS
 62
           3
100
AcDbLine
 10
1354.365293798321
 20
414.831708198509
 11
1356.352777026262
 21
414.831708198509
  0
LINE
  5
86
100
AcDbEntity
  8
1
  6
CONTINUOUS
 62
           3
100
AcDbLine
 10
1356.221266790405
 20
417.28736618851
 11
1354.365293798321
 21
417.28736618851
  0
LINE
  5
85
100
AcDbEntity
  8
1
  6
CONTINUOUS
 62
           3
100
AcDbLine
 10
1354.365293798321
 20
417.28736618851
 11
1354.365293798321
 21
414.831708198509
  0
ENDBLK
  5
139
100
AcDbEntity
  8
0
100
AcDbBlockEnd
  0
ENDSEC
  0
SECTION
  2
ENTITIES
  0
MTEXT
  5
13E
100
AcDbEntity
  8
1
 62
           2
100
AcDbMText
 10
1363.488160814827
 20
288.781373657233
 30
0.0
 40
35.0
 41
0.0
 71
           9
 72
           1
  1
Prime-line 265
  7
CONVERTER_1
  0
MTEXT
  5
13D
100
AcDbEntity
  8
1
 62
           3
100
AcDbMText
 10
424.999999999979
 20
540.0
 30
0.0
 40
35.0
 41
0.0
 71
           1
 72
           1
  1
ø 52
  7
CONVERTER_1
  0
MTEXT
  5
13C
100
AcDbEntity
  8
1
 62
           3
100
AcDbMText
 10
374.999999999979
 20
133.0
 30
0.0
 40
35.0
 41
0.0
 71
           2
 72
           1
  1
ø 52
  7
CONVERTER_1
  0
INSERT
  5
30
100
AcDbEntity
  8
0
100
AcDbBlockReference
  2
WANNE_PRIME_LINE_265
 10
0.0
 20
0.0
  0
INSERT
  5
31
100
AcDbEntity
  8
0
100
AcDbBlockReference
  2
DLX
 10
0.0
 20
0.0
  0
ENDSEC
  0
SECTION
  2
OBJECTS
  0
DICTIONARY
  5
19
100
AcDbDictionary
  3
ACAD_GROUP
350
1A
  3
ACAD_MLINESTYLE
350
1B
  0
DICTIONARY
  5
1A
102
{ACAD_REACTORS
330
19
102
}
100
AcDbDictionary
  0
DICTIONARY
  5
1B
102
{ACAD_REACTORS
330
19
102
}
100
AcDbDictionary
  3
STANDARD
350
1C
  0
MLINESTYLE
  5
1C
102
{ACAD_REACTORS
330
1B
102
}
100
AcDbMlineStyle
  2
STANDARD
 70
           0
  3

 62
           0
 51
90.0
 52
90.0
 71
           2
 49
0.5
 62
         256
  6
BYLAYER
 49
-0.5
 62
         256
  6
BYLAYER
  0
ENDSEC
  0
EOF
