  0
SECTION
  2
HEADER
  9
$ACADVER
  1
AC1014
  9
$ACADMAINTVER
 70
           0
  9
$DWGCODEPAGE
  3
ANSI_1252
  9
$INSBASE
 10
0.0
 20
0.0
 30
0.0
  9
$EXTMIN
 10
1.000000000000E+20
 20
1.000000000000E+20
 30
1.000000000000E+20
  9
$EXTMAX
 10
-1.000000000000E+20
 20
-1.000000000000E+20
 30
-1.000000000000E+20
  9
$LIMMIN
 10
0.0
 20
0.0
  9
$LIMMAX
 10
0.0
 20
0.0
  9
$ORTHOMODE
 70
           0
  9
$REGENMODE
 70
           1
  9
$FILLMODE
 70
           1
  9
$QTEXTMODE
 70
           0
  9
$MIRRTEXT
 70
           1
  9
$DRAGMODE
 70
           2
  9
$LTSCALE
 40
1.0
  9
$OSMODE
 70
           0
  9
$ATTMODE
 70
           1
  9
$TEXTSIZE
 40
0.2
  9
$TRACEWID
 40
0.05
  9
$TEXTSTYLE
  7
STANDARD
  9
$CLAYER
  8
0
  9
$CELTYPE
  6
CONTINUOUS
  9
$CECOLOR
 62
         256
  9
$CELTSCALE
 40
1.0
  9
$DELOBJ
 70
           1
  9
$DISPSILH
 70
           0
  9
$DIMSCALE
 40
1.0
  9
$DIMASZ
 40
0.18
  9
$DIMEXO
 40
0.0625
  9
$DIMDLI
 40
0.38
  9
$DIMRND
 40
0.0
  9
$DIMDLE
 40
0.0
  9
$DIMEXE
 40
0.18
  9
$DIMTP
 40
0.0
  9
$DIMTM
 40
0.0
  9
$DIMTXT
 40
0.18
  9
$DIMCEN
 40
0.09
  9
$DIMTSZ
 40
0.0
  9
$DIMTOL
 70
           0
  9
$DIMLIM
 70
           0
  9
$DIMTIH
 70
           1
  9
$DIMTOH
 70
           1
  9
$DIMSE1
 70
           0
  9
$DIMSE2
 70
           0
  9
$DIMTAD
 70
           0
  9
$DIMZIN
 70
           0
  9
$DIMBLK
  1

  9
$DIMASO
 70
           1
  9
$DIMSHO
 70
           1
  9
$DIMPOST
  1

  9
$DIMAPOST
  1

  9
$DIMALT
 70
           0
  9
$DIMALTD
 70
           2
  9
$DIMALTF
 40
25.4
  9
$DIMLFAC
 40
1.0
  9
$DIMTOFL
 70
           0
  9
$DIMTVP
 40
0.0
  9
$DIMTIX
 70
           0
  9
$DIMSOXD
 70
           0
  9
$DIMSAH
 70
           0
  9
$DIMBLK1
  1

  9
$DIMBLK2
  1

  9
$DIMSTYLE
  2
STANDARD
  9
$DIMCLRD
 70
           0
  9
$DIMCLRE
 70
           0
  9
$DIMCLRT
 70
           0
  9
$DIMTFAC
 40
1.0
  9
$DIMGAP
 40
0.09
  9
$DIMJUST
 70
           0
  9
$DIMSD1
 70
           0
  9
$DIMSD2
 70
           0
  9
$DIMTOLJ
 70
           1
  9
$DIMTZIN
 70
           0
  9
$DIMALTZ
 70
           0
  9
$DIMALTTZ
 70
           0
  9
$DIMFIT
 70
           3
  9
$DIMUPT
 70
           0
  9
$DIMUNIT
 70
           2
  9
$DIMDEC
 70
           4
  9
$DIMTDEC
 70
           4
  9
$DIMALTU
 70
           2
  9
$DIMALTTD
 70
           2
  9
$DIMTXSTY
  7
STANDARD
  9
$DIMAUNIT
 70
           0
  9
$LUNITS
 70
           2
  9
$LUPREC
 70
           4
  9
$SKETCHINC
 40
0.1
  9
$FILLETRAD
 40
0.0
  9
$AUNITS
 70
           0
  9
$AUPREC
 70
           0
  9
$MENU
  1
acad
  9
$ELEVATION
 40
0.0
  9
$PELEVATION
 40
0.0
  9
$THICKNESS
 40
0.0
  9
$LIMCHECK
 70
           0
  9
$BLIPMODE
 70
           1
  9
$CHAMFERA
 40
0.0
  9
$CHAMFERB
 40
0.0
  9
$CHAMFERC
 40
0.0
  9
$CHAMFERD
 40
0.0
  9
$SKPOLY
 70
           0
  9
$TDCREATE
 40
0.000000000
  9
$TDUPDATE
 40
0.000000000
  9
$TDINDWG
 40
0.0000000000
  9
$TDUSRTIMER
 40
0.0000000000
  9
$USRTIMER
 70
           1
  9
$ANGBASE
 50
0.0
  9
$ANGDIR
 70
           0
  9
$PDMODE
 70
           0
  9
$PDSIZE
 40
0.0
  9
$PLINEWID
 40
0.0
  9
$COORDS
 70
           0
  9
$SPLFRAME
 70
           0
  9
$SPLINETYPE
 70
           6
  9
$SPLINESEGS
 70
           8
  9
$ATTDIA
 70
           0
  9
$ATTREQ
 70
           1
  9
$HANDLING
 70
           1
  9
$HANDSEED
  5
106
  9
$SURFTAB1
 70
           6
  9
$SURFTAB2
 70
           6
  9
$SURFTYPE
 70
           6
  9
$SURFU
 70
           6
  9
$SURFV
 70
           6
  9
$UCSNAME
  2

  9
$UCSORG
 10
0.0
 20
0.0
 30
0.0
  9
$UCSXDIR
 10
1.0
 20
0.0
 30
0.0
  9
$UCSYDIR
 10
0.0
 20
1.0
 30
0.0
  9
$PUCSNAME
  2

  9
$PUCSORG
 10
0.0
 20
0.0
 30
0.0
  9
$PUCSXDIR
 10
1.0
 20
0.0
 30
0.0
  9
$PUCSYDIR
 10
0.0
 20
1.0
 30
0.0
  9
$USERI1
 70
           0
  9
$USERI2
 70
           0
  9
$USERI3
 70
           0
  9
$USERI4
 70
           0
  9
$USERI5
 70
           0
  9
$USERR1
 40
0.0
  9
$USERR2
 40
0.0
  9
$USERR3
 40
0.0
  9
$USERR4
 40
0.0
  9
$USERR5
 40
0.0
  9
$WORLDVIEW
 70
           1
  9
$SHADEDGE
 70
           3
  9
$SHADEDIF
 70
          70
  9
$TILEMODE
 70
           1
  9
$MAXACTVP
 70
          16
  9
$PINSBASE
 10
0.0
 20
0.0
 30
0.0
  9
$PLIMCHECK
 70
           0
  9
$PEXTMIN
 10
1.000000000000E+20
 20
1.000000000000E+20
 30
1.000000000000E+20
  9
$PEXTMAX
 10
-1.000000000000E+20
 20
-1.000000000000E+20
 30
-1.000000000000E+20
  9
$PLIMMIN
 10
0.0
 20
0.0
  9
$PLIMMAX
 10
12.0
 20
9.0
  9
$UNITMODE
 70
           0
  9
$VISRETAIN
 70
           0
  9
$PLINEGEN
 70
           1
  9
$PSLTSCALE
 70
           0
  9
$TREEDEPTH
 70
        3020
  9
$PICKSTYLE
 70
           1
  9
$CMLSTYLE
  2
STANDARD
  9
$CMLJUST
 70
           0
  9
$CMLSCALE
 40
1.0
  9
$PROXYGRAPHICS
 70
           0
  9
$MEASUREMENT
 70
           0
  0
ENDSEC
  0
SECTION
  2
CLASSES
  0
CLASS
  1
LWPOLYLINE
  2
AcDbPolyline
  3
"AutoCAD"
 90
        0
280
           0
281
           1
  0
CLASS
  1
IMAGE
  2
AcDbRasterImage
  3
ISM
 90
      127
280
           0
281
           1
  0
CLASS
  1
OLE2FRAME
  2
AcDbOle2Frame
  3
""
 90
        0
280
           0
281
           1
  0
CLASS
  1
HATCH
  2
AcDbHatch
  3
"ACAD_SEDONA"
 90
        0
280
           0
281
           1
  0
CLASS
  1
DICTIONARYVAR
  2
AcDbDictionaryVar
  3
"AutoCAD"
 90
        0
280
           0
281
           0
  0
CLASS
  1
RASTERVARIABLES
  2
AcDbRasterVariables
  3
ISM
 90
        0
280
           0
281
           0
  0
CLASS
  1
IMAGEDEF
  2
AcDbRasterImageDef
  3
ISM
 90
        0
280
           0
281
           0
  0
CLASS
  1
IMAGEDEF_REACTOR
  2
AcDbRasterImageDefReactor
  3
ISM
 90
        1
280
           0
281
           0
  0
CLASS
  1
IDBUFFER
  2
AcDbIdBuffer
  3
"Acad"
 90
        0
280
           0
281
           0
  0
CLASS
  1
SPATIAL_FILTER
  2
AcDbSpatialFilter
  3
"Acad"
 90
        0
280
           0
281
           0
  0
CLASS
  1
XRECORD
  2
AcDbXrecord
  3
"<Built In>"
 90
        0
280
           0
281
           0
  0
CLASS
  1
SORTENTSTABLE
  2
AcDbSortentsTable
  3
"AutoCAD"
 90
        0
280
           0
281
           0
  0
CLASS
  1
LAYER_INDEX
  2
AcDbLayerIndex
  3
"Acad"
 90
        0
280
           0
281
           0
  0
CLASS
  1
SPATIAL_INDEX
  2
AcDbSpatialIndex
  3
"Acad"
 90
        0
280
           0
281
           0
  0
CLASS
  1
OBJECT_PTR
  2
CAseDLPNTableRecord
  3
"ASE-LPNTableRecord"
 90
        1
280
           0
281
           0
  0
CLASS
  1
LAYOUT
  2
AcDbLayout
  3
"AutoCAD 2000"
 90
        1
280
           0
281
           0
  0
CLASS
  1
PLOTSETTINGS
  2
AcDbPlotSettings
  3
"AutoCAD 2000"
 90
        1
280
           0
281
           0
  0
CLASS
  1
ACDBDICTIONARYWDFLT
  2
AcDbDictionaryWithDefault
  3
"AutoCAD 2000"
 90
        1
280
           0
281
           0
  0
CLASS
  1
ACDBPLACEHOLDER
  2
AcDbPlaceHolder
  3
"AutoCAD 2000"
 90
        1
280
           0
281
           0
  0
CLASS
  1
VBA_PROJECT
  2
AcDbVbaProject
  3
"acadvba"
 90
        1
280
           0
281
           0
  0
CLASS
  1
WIPEOUT
  2
AcDbWipeout
  3
WipeOut|AutoCAD Express Tool|expresstools@autodesk.com
 90
      127
280
           0
281
           1
  0
CLASS
  1
WIPEOUTVARIABLES
  2
AcDbWipeoutVariables
  3
WipeOut|AutoCAD Express Tool|expresstools@autodesk.com
 90
        0
280
           0
281
           0
  0
CLASS
  1
RTEXT
  2
RText
  3
RText|AutoCAD Express Tool|expresstools@autodesk.com
 90
        0
280
           0
281
           1
  0
CLASS
  1
ARCALIGNEDTEXT
  2
AcDbArcAlignedText
  3
ATEXT|AutoCAD Express Tool|expresstools@autodesk.com
 90
        0
280
           0
281
           1
  0
ENDSEC
  0
SECTION
  2
TABLES
  0
TABLE
  2
VPORT
  5
7
100
AcDbSymbolTable
 70
           1
  0
VPORT
  5
15
100
AcDbSymbolTableRecord
100
AcDbViewportTableRecord
  2
*ACTIVE
 70
           0
 10
0.0
 20
0.0
 11
1.0
 21
1.0
 12
6.591288
 22
4.579184
 13
0.0
 23
0.0
 14
1.0
 24
1.0
 15
0.0
 25
0.0
 16
0.0
 26
0.0
 36
1.0
 17
0.0
 27
0.0
 37
0.0
 40
9.158369
 41
0.688564
 42
50.0
 43
0.0
 44
0.0
 50
0.0
 51
0.0
 71
           0
 72
         100
 73
           1
 74
           1
 75
           0
 76
           0
 77
           0
 78
           0
  0
ENDTAB
  0
TABLE
  2
LTYPE
  5
4
100
AcDbSymbolTable
 70
          10
  0
LTYPE
  5
11
100
AcDbSymbolTableRecord
100
AcDbLinetypeTableRecord
  2
BYBLOCK
 70
          64
  3

 72
          65
 73
           0
 40
0.0
  0
LTYPE
  5
12
100
AcDbSymbolTableRecord
100
AcDbLinetypeTableRecord
  2
BYLAYER
 70
          64
  3

 72
          65
 73
           0
 40
0.0
  0
LTYPE
  5
13
100
AcDbSymbolTableRecord
100
AcDbLinetypeTableRecord
  2
CONTINUOUS
 70
          64
  3
Solid line
 72
          65
 73
           0
 40
0.0
  0
LTYPE
  5
1D
100
AcDbSymbolTableRecord
100
AcDbLinetypeTableRecord
  2
DASHED
 70
          64
  3
Dashed
 72
          65
 73
           2
 40
15.0
 49
12.0
 74
           0
 49
-3.0
 74
           0
  0
LTYPE
  5
1E
100
AcDbSymbolTableRecord
100
AcDbLinetypeTableRecord
  2
DOTTED
 70
          64
  3
Dotted
 72
          65
 73
           2
 40
3.5
 49
0.5
 74
           0
 49
-3.0
 74
           0
  0
LTYPE
  5
1F
100
AcDbSymbolTableRecord
100
AcDbLinetypeTableRecord
  2
DOT_CENTER
 70
          64
  3
Dot_Center
 72
          65
 73
           4
 40
2.0
 49
1.25
 74
           0
 49
-0.25
 74
           0
 49
0.25
 74
           0
 49
-0.25
 74
           0
  0
LTYPE
  5
20
100
AcDbSymbolTableRecord
100
AcDbLinetypeTableRecord
  2
LONG_DASHED
 70
          64
  3
Long_Dashed
 72
          65
 73
           2
 40
2.0
 49
1.5
 74
           0
 49
-0.5
 74
           0
  0
LTYPE
  5
21
100
AcDbSymbolTableRecord
100
AcDbLinetypeTableRecord
  2
DASH_CENTER
 70
          64
  3
Dash_Center
 72
          65
 73
           4
 40
36.0
 49
24.0
 74
           0
 49
-3.0
 74
           0
 49
6.0
 74
           0
 49
-3.0
 74
           0
  0
LTYPE
  5
22
100
AcDbSymbolTableRecord
100
AcDbLinetypeTableRecord
  2
PHANTOM
 70
          64
  3
Phantom
 72
          65
 73
           6
 40
2.5
 49
1.25
 74
           0
 49
-0.25
 74
           0
 49
0.25
 74
           0
 49
-0.25
 74
           0
 49
0.25
 74
           0
 49
-0.25
 74
           0
  0
LTYPE
  5
23
100
AcDbSymbolTableRecord
100
AcDbLinetypeTableRecord
  2
CENTER_DASH_DASH
 70
          64
  3
Center_Dash_Dash
 72
          65
 73
           6
 40
22.0
 49
12.0
 74
           0
 49
-3.0
 74
           0
 49
0.5
 74
           0
 49
-3.0
 74
           0
 49
0.5
 74
           0
 49
-3.0
 74
           0
  0
ENDTAB
  0
TABLE
  2
LAYER
  5
2
100
AcDbSymbolTable
 70
           5
  0
LAYER
  5
14
100
AcDbSymbolTableRecord
100
AcDbLayerTableRecord
  2
0
 70
           0
 62
           7
  6
CONTINUOUS
  0
LAYER
  5
24
100
AcDbSymbolTableRecord
100
AcDbLayerTableRecord
  2
MITTELLINIEN
 70
           0
 62
           7
  6
CONTINUOUS
  0
LAYER
  5
25
100
AcDbSymbolTableRecord
100
AcDbLayerTableRecord
  2
1
 70
           0
 62
           7
  6
CONTINUOUS
  0
LAYER
  5
26
100
AcDbSymbolTableRecord
100
AcDbLayerTableRecord
  2
GEOMETRIE
 70
           0
 62
           7
  6
CONTINUOUS
  0
LAYER
  5
27
100
AcDbSymbolTableRecord
100
AcDbLayerTableRecord
  2
WANNE
 70
           0
 62
           7
  6
CONTINUOUS
  0
ENDTAB
  0
TABLE
  2
STYLE
  5
3
100
AcDbSymbolTable
 70
           2
  0
STYLE
  5
17
100
AcDbSymbolTableRecord
100
AcDbTextStyleTableRecord
  2
STANDARD
 70
           0
 40
0.0
 41
1.0
 50
0.0
 71
           0
 42
0.0
  3
txt
  4

  0
STYLE
  5
102
100
AcDbSymbolTableRecord
100
AcDbTextStyleTableRecord
  2
CONVERTER_1
 70
           0
 40
0.0
 41
0.71262
 50
0.0
 71
           0
 42
0.0
  3
txt.shx
  4

  0
ENDTAB
  0
TABLE
  2
VIEW
  5
5
100
AcDbSymbolTable
 70
           0
  0
ENDTAB
  0
TABLE
  2
UCS
  5
6
100
AcDbSymbolTable
 70
           0
  0
ENDTAB
  0
TABLE
  2
APPID
  5
8
100
AcDbSymbolTable
 70
           1
  0
APPID
  5
16
100
AcDbSymbolTableRecord
100
AcDbRegAppTableRecord
  2
ACAD
 70
           0
  0
ENDTAB
  0
TABLE
  2
DIMSTYLE
  5
9
100
AcDbSymbolTable
 70
           1
  0
DIMSTYLE
105
18
100
AcDbSymbolTableRecord
100
AcDbDimStyleTableRecord
  2
STANDARD
 70
           0
  3

  4

  5

  6

  7

 40
1.0
 41
0.18
 42
0.0625
 43
0.38
 44
0.18
 45
0.0
 46
0.0
 47
0.0
 48
0.0
 71
           0
 72
           0
 73
           1
 74
           1
 75
           0
 76
           0
 77
           0
 78
           0
140
0.18
141
0.09
142
0.0
143
25.4
144
1.0
145
0.0
146
1.0
147
0.09
170
           0
171
           2
172
           0
173
           0
174
           0
175
           0
176
           0
177
           0
178
           0
270
           2
271
           4
272
           4
273
           2
274
           2
275
           0
280
           0
281
           0
282
           0
283
           1
284
           0
285
           0
286
           0
287
           0
288
           0
340
17
  0
ENDTAB
  0
TABLE
  2
BLOCK_RECORD
  5
1
100
AcDbSymbolTable
 70
           2
  0
BLOCK_RECORD
  5
A
100
AcDbSymbolTableRecord
100
AcDbBlockTableRecord
  2
*MODEL_SPACE
  0
BLOCK_RECORD
  5
B
100
AcDbSymbolTableRecord
100
AcDbBlockTableRecord
  2
*PAPER_SPACE
  0
BLOCK_RECORD
  5
28
100
AcDbSymbolTableRecord
100
AcDbBlockTableRecord
  2
WANNE_PRIME_LINE_266
  0
BLOCK_RECORD
  5
2A
100
AcDbSymbolTableRecord
100
AcDbBlockTableRecord
  2
DLX
  0
ENDTAB
  0
ENDSEC
  0
SECTION
  2
BLOCKS
  0
BLOCK
  5
D
100
AcDbEntity
  8
0
100
AcDbBlockBegin
  2
*MODEL_SPACE
 70
           0
 10
0.0
 20
0.0
 30
0.0
  3
*MODEL_SPACE
  1

  0
ENDBLK
  5
E
100
AcDbEntity
  8
0
100
AcDbBlockEnd
  0
BLOCK
  5
F
100
AcDbEntity
 67
           1
  8
0
100
AcDbBlockBegin
  2
*PAPER_SPACE
 70
           0
 10
0.0
 20
0.0
 30
0.0
  3
*PAPER_SPACE
  1

  0
ENDBLK
  5
10
100
AcDbEntity
 67
           1
  8
0
100
AcDbBlockEnd
  0
BLOCK
  5
29
100
AcDbEntity
  8
0
100
AcDbBlockBegin
  2
WANNE_PRIME_LINE_266
 70
           0
 10
0.0
 20
0.0
 30
0.0
  3
WANNE_PRIME_LINE_266
  1

  0
ARC
  5
4A
100
AcDbEntity
  8
1
  6
CONTINUOUS
 62
           7
100
AcDbCircle
 10
1700.0
 20
700.0
 40
50.0
100
AcDbArc
 50
0.0
 51
90.0
  0
ARC
  5
49
100
AcDbEntity
  8
1
  6
CONTINUOUS
 62
           7
100
AcDbCircle
 10
100.0
 20
700.0
 40
50.0
100
AcDbArc
 50
90.0
 51
180.0
  0
ARC
  5
48
100
AcDbEntity
  8
1
  6
CONTINUOUS
 62
           7
100
AcDbCircle
 10
300.0
 20
350.0
 40
250.0
100
AcDbArc
 50
180.0
 51
-90.0
  0
ARC
  5
47
100
AcDbEntity
  8
1
  6
CONTINUOUS
 62
           7
100
AcDbCircle
 10
1500.0
 20
350.0
 40
250.0
100
AcDbArc
 50
-90.0
 51
0.0
  0
ARC
  5
46
100
AcDbEntity
  8
1
  6
CONTINUOUS
 62
           7
100
AcDbCircle
 10
1453.528791000101
 20
278.904574000009
 40
100.0
100
AcDbArc
 50
-90.0
 51
0.0
  0
ARC
  5
45
100
AcDbEntity
  8
1
  6
CONTINUOUS
 62
           7
100
AcDbCircle
 10
1453.528791000101
 20
572.751445
 40
100.0
100
AcDbArc
 50
0.0
 51
90.0
  0
ARC
  5
44
100
AcDbEntity
  8
1
  6
CONTINUOUS
 62
           7
100
AcDbCircle
 10
346.4712100001
 20
572.751445
 40
100.0
100
AcDbArc
 50
90.0
 51
180.0
  0
ARC
  5
43
100
AcDbEntity
  8
1
  6
CONTINUOUS
 62
           7
100
AcDbCircle
 10
346.4712100001
 20
278.904574000009
 40
100.0
100
AcDbArc
 50
180.0
 51
-90.0
  0
ARC
  5
42
100
AcDbEntity
  8
1
  6
CONTINUOUS
 62
           7
100
AcDbCircle
 10
1450.0
 20
350.0
 40
350.0
100
AcDbArc
 50
-90.0
 51
0.0
  0
ARC
  5
41
100
AcDbEntity
  8
1
  6
CONTINUOUS
 62
           7
100
AcDbCircle
 10
350.0
 20
350.0
 40
350.0
100
AcDbArc
 50
180.0
 51
-90.0
  0
SPLINE
  5
40
100
AcDbEntity
  8
1
  6
CONTINUOUS
 62
           7
100
AcDbSpline
210
0.0
220
0.0
230
1.0
 70
           0
 71
           3
 72
          41
 73
          38
 74
          77
 42
0.00000000001
 43
0.00000000001
 44
0.00000000001
 40
-1.9332773527506788
 40
-0.0519149600602304
 40
1.829447432630213
 40
3.8160231382419267
 40
6.089005721130949
 40
8.7583165725678924
 40
11.856343216495995
 40
15.358060651054195
 40
19.202594105612995
 40
23.306173214999774
 40
27.570576436275857
 40
31.889464432284402
 40
36.153867653561399
 40
40.257446762947723
 40
44.101980217507069
 40
47.60369765206503
 40
50.701724295992307
 40
53.371035147429424
 40
55.644017730319234
 40
57.630593435930138
 40
59.511955828620216
 40
61.498531534232271
 40
63.771514117120716
 40
66.440824968558019
 40
69.538851612485544
 40
73.040569047043476
 40
76.885102501603285
 40
80.988681610989573
 40
85.253084832265642
 40
89.57197282827417
 40
93.836376049550736
 40
97.939955158937508
 40
101.78448861349682
 40
105.28620604805462
 40
108.38423269198208
 40
111.05354354341989
 40
113.32652612630932
 40
115.31310183192038
 40
117.19446422461033
 40
119.07582661730078
 40
120.95718900999123
 10
925.102286043086
 20
119.6977549566102
 30
0.0
 10
924.67881079283211
 20
121.530837923923
 30
0.0
 10
923.4784604770789
 20
123.24394633191309
 30
0.0
 10
921.59151897449601
 20
124.81316025217281
 30
0.0
 10
919.07367951637593
 20
126.2204664116564
 30
0.0
 10
915.99204795382093
 20
127.4330226721297
 30
0.0
 10
912.43365700486311
 20
128.41660869431851
 30
0.0
 10
908.5027175174921
 20
129.14161941376571
 30
0.0
 10
904.31629616962005
 20
129.58579238079639
 30
0.0
 10
900.00000000000091
 20
129.73539484797561
 30
0.0
 10
895.68370383037905
 20
129.58579238079639
 30
0.0
 10
891.4972824825079
 20
129.14161941376571
 30
0.0
 10
887.56634299513689
 20
128.41660869431851
 30
0.0
 10
884.00795204617793
 20
127.4330226721297
 30
0.0
 10
880.92632048362498
 20
126.22046641165549
 30
0.0
 10
878.40848102550399
 20
124.8131602521737
 30
0.0
 10
876.52153952292201
 20
123.2439463319122
 30
0.0
 10
875.32118920716698
 20
121.53083792392199
 30
0.0
 10
874.89771395691491
 20
119.6977549566116
 30
0.0
 10
875.32118920716789
 20
117.8646719892965
 30
0.0
 10
876.52153952292201
 20
116.15156358130869
 30
0.0
 10
878.40848102550399
 20
114.5823496610476
 30
0.0
 10
880.92632048362498
 20
113.1750435015645
 30
0.0
 10
884.00795204617793
 20
111.9624872410907
 30
0.0
 10
887.56634299513689
 20
110.9789012189015
 30
0.0
 10
891.49728248250904
 20
110.25389049945601
 30
0.0
 10
895.68370383037905
 20
109.80971753242309
 30
0.0
 10
900.0
 20
109.6601150652448
 30
0.0
 10
904.31629616962005
 20
109.809717532424
 30
0.0
 10
908.5027175174921
 20
110.2538904994551
 30
0.0
 10
912.43365700486311
 20
110.9789012189019
 30
0.0
 10
915.99204795382207
 20
111.9624872410907
 30
0.0
 10
919.07367951637502
 20
113.17504350156401
 30
0.0
 10
921.59151897449601
 20
114.5823496610472
 30
0.0
 10
923.4784604770789
 20
116.15156358130869
 30
0.0
 10
924.67881079283211
 20
117.8646719892984
 30
0.0
 10
925.102286043086
 20
119.6977549566102
 30
0.0
 10
924.67881079283211
 20
121.530837923923
 30
0.0
 11
924.89630797678433
 21
120.58936523312872
 31
0.0
 11
924.59323003867246
 21
121.4952099187425
 31
0.0
 11
924.11899059224083
 21
122.32979859399524
 31
0.0
 11
923.42163982273212
 21
123.19583150090509
 31
0.0
 11
922.61064774452984
 21
123.96563474579898
 31
0.0
 11
921.5549667257161
 21
124.76411560941983
 31
0.0
 11
920.4261812093423
 21
125.46450718753468
 31
0.0
 11
919.05016301176272
 21
126.17377498710613
 31
0.0
 11
917.62711180495717
 21
126.78965993757711
 31
0.0
 11
915.97677178229003
 21
127.38939280712111
 31
0.0
 11
914.29587941656087
 21
127.90186594664794
 31
0.0
 11
912.42385986694944
 21
128.37559564487938
 31
0.0
 11
910.53224604151092
 21
128.76729924423253
 31
0.0
 11
908.49685432521051
 21
129.10249392316194
 31
0.0
 11
906.44973622434713
 21
129.35943762088388
 31
0.0
 11
904.31354402003751
 21
129.54778529392365
 31
0.0
 11
902.17184751656259
 21
129.66011879321792
 31
0.0
 11
900.00000000000057
 21
129.69775682059677
 31
0.0
 11
897.82815248343798
 21
129.66011879321792
 31
0.0
 11
895.68645597996203
 21
129.54778529392362
 31
0.0
 11
893.55026377565207
 21
129.35943762088382
 31
0.0
 11
891.50314567478938
 21
129.10249392316194
 31
0.0
 11
889.46775395848942
 21
128.76729924423256
 31
0.0
 11
887.57614013305033
 21
128.37559564487935
 31
0.0
 11
885.70412058343845
 21
127.9018659466479
 31
0.0
 11
884.02322821770929
 21
127.38939280712097
 31
0.0
 11
882.37288819504261
 21
126.78965993757659
 31
0.0
 11
880.94983698823762
 21
126.1737749871056
 31
0.0
 11
879.57381879065838
 21
125.46450718753485
 31
0.0
 11
878.44503327428424
 21
124.76411560942032
 31
0.0
 11
877.38935225547073
 21
123.96563474579901
 31
0.0
 11
876.57836017726834
 21
123.19583150090435
 31
0.0
 11
875.88100940775894
 21
122.32979859399396
 31
0.0
 11
875.40676996132697
 21
121.49520991874174
 31
0.0
 11
875.10369202321567
 21
120.58936523312904
 31
0.0
 11
875.00070299006541
 21
119.69775495661109
 31
0.0
 11
875.10369202321613
 21
118.80614468009213
 31
0.0
 11
875.40676996132777
 21
117.90029999447756
 31
0.0
 11
875.88100940775962
 21
117.06571131922516
 31
0.0
 11
876.57836017726856
 21
116.19967841231623
 31
0.0
 11
877.38935225547038
 21
115.42987516742232
 31
0.0
 11
878.44503327428401
 21
114.63139430380083
 31
0.0
 11
879.57381879065838
 21
113.93100272568586
 31
0.0
 11
880.94983698823785
 21
113.22173492611461
 31
0.0
 11
882.37288819504261
 21
112.60584997564357
 31
0.0
 11
884.02322821770929
 21
112.00611710609932
 31
0.0
 11
885.70412058343834
 21
111.49364396657234
 31
0.0
 11
887.57614013305056
 21
111.01991426834088
 31
0.0
 11
889.46775395849011
 21
110.62821066898826
 31
0.0
 11
891.50314567479018
 21
110.29301599005925
 31
0.0
 11
893.55026377565287
 21
110.03607229233677
 31
0.0
 11
895.68645597996215
 21
109.84772461929624
 31
0.0
 11
897.82815248343741
 21
109.73539112000202
 31
0.0
 11
899.99999999999989
 21
109.69775309262351
 31
0.0
 11
902.17184751656214
 21
109.73539112000249
 31
0.0
 11
904.31354402003728
 21
109.84772461929681
 31
0.0
 11
906.44973622434713
 21
110.03607229233674
 31
0.0
 11
908.49685432521039
 21
110.29301599005873
 31
0.0
 11
910.53224604151069
 21
110.62821066898806
 31
0.0
 11
912.42385986694956
 21
111.0199142683411
 31
0.0
 11
914.29587941656155
 21
111.49364396657249
 31
0.0
 11
915.97677178229071
 21
112.0061171060993
 31
0.0
 11
917.62711180495728
 21
112.60584997564328
 31
0.0
 11
919.05016301176227
 21
113.22173492611415
 31
0.0
 11
920.42618120934151
 21
113.93100272568532
 31
0.0
 11
921.55496672571576
 21
114.63139430380043
 31
0.0
 11
922.61064774453007
 21
115.42987516742204
 31
0.0
 11
923.42163982273212
 21
116.1996784123165
 31
0.0
 11
924.11899059224095
 21
117.06571131922655
 31
0.0
 11
924.59323003867235
 21
117.90029999447889
 31
0.0
 11
924.89630797678433
 21
118.80614468009213
 31
0.0
 11
924.9978571202289
 21
119.70398775839475
 31
0.0
 11
924.89054841795905
 21
120.61429644026649
 31
0.0
 11
924.78467960539558
 21
121.07256718209477
 31
0.0
 11
924.89054841795905
 21
120.6142964402666
 31
0.0
 11
924.99785712022901
 21
120.14979289665392
 31
0.0
 11
924.89630797678433
 21
120.58936523312872
 31
0.0
  0
CIRCLE
  5
3F
100
AcDbEntity
  8
WANNE
  6
CONTINUOUS
 62
           7
100
AcDbCircle
 10
899.999999999994
 20
309.0
 40
26.0
  0
CIRCLE
  5
3E
100
AcDbEntity
  8
WANNE
  6
CONTINUOUS
 62
           7
100
AcDbCircle
 10
899.999999999994
 20
309.0
 40
45.0
  0
LINE
  5
3D
100
AcDbEntity
  8
MITTELLINIEN
  6
DOT_CENTER
 62
           3
100
AcDbLine
 10
963.989954999998
 20
309.0
 11
834.321980999987
 21
309.0
  0
LINE
  5
3C
100
AcDbEntity
  8
MITTELLINIEN
  6
DOT_CENTER
 62
           3
100
AcDbLine
 10
900.0
 20
372.989954999999
 11
900.0
 21
243.321980999999
  0
LINE
  5
3B
100
AcDbEntity
  8
GEOMETRIE
  6
CONTINUOUS
 62
           7
100
AcDbLine
 10
0.0
 20
350.0
 11
0.0
 21
800.0
  0
LINE
  5
3A
100
AcDbEntity
  8
GEOMETRIE
  6
CONTINUOUS
 62
           7
100
AcDbLine
 10
1800.0
 20
350.0
 11
1800.0
 21
800.0
  0
LINE
  5
39
100
AcDbEntity
  8
GEOMETRIE
  6
CONTINUOUS
 62
           7
100
AcDbLine
 10
1800.0
 20
800.0
 11
0.0
 21
800.0
  0
LINE
  5
38
100
AcDbEntity
  8
GEOMETRIE
  6
CONTINUOUS
 62
           7
100
AcDbLine
 10
1450.0
 20
0.0
 11
350.0
 21
0.0
  0
LINE
  5
37
100
AcDbEntity
  8
1
  6
CONTINUOUS
 62
           7
100
AcDbLine
 10
1700.0
 20
750.0
 11
100.0
 21
750.0
  0
LINE
  5
36
100
AcDbEntity
  8
1
  6
CONTINUOUS
 62
           7
100
AcDbLine
 10
50.0
 20
350.0
 11
50.0
 21
700.0
  0
LINE
  5
35
100
AcDbEntity
  8
1
  6
CONTINUOUS
 62
           7
100
AcDbLine
 10
1500.0
 20
100.0
 11
300.0
 21
100.0
  0
LINE
  5
34
100
AcDbEntity
  8
1
  6
CONTINUOUS
 62
           7
100
AcDbLine
 10
1750.0
 20
350.0
 11
1750.0
 21
700.0
  0
LINE
  5
33
100
AcDbEntity
  8
1
  6
CONTINUOUS
 62
           7
100
AcDbLine
 10
1553.528791000101
 20
278.904574000009
 11
1553.528791000101
 21
572.751445
  0
LINE
  5
32
100
AcDbEntity
  8
1
  6
CONTINUOUS
 62
           7
100
AcDbLine
 10
246.4712100001
 20
278.904574000009
 11
246.4712100001
 21
572.751445
  0
LINE
  5
31
100
AcDbEntity
  8
1
  6
CONTINUOUS
 62
           7
100
AcDbLine
 10
1453.528791000101
 20
672.751445
 11
346.4712100001
 21
672.751445
  0
LINE
  5
30
100
AcDbEntity
  8
1
  6
CONTINUOUS
 62
           7
100
AcDbLine
 10
1453.528791000101
 20
178.904574000009
 11
346.4712100001
 21
178.904574000009
  0
ENDBLK
  5
4B
100
AcDbEntity
  8
0
100
AcDbBlockEnd
  0
BLOCK
  5
2B
100
AcDbEntity
  8
0
100
AcDbBlockBegin
  2
DLX
 70
           0
 10
0.0
 20
0.0
 30
0.0
  3
DLX
  1

  0
CIRCLE
  5
FF
100
AcDbEntity
  8
1
  6
CONTINUOUS
 62
           3
100
AcDbCircle
 10
492.713774238035
 20
598.630232878755
 40
5.530127989697
  0
CIRCLE
  5
FE
100
AcDbEntity
  8
1
  6
CONTINUOUS
 62
           3
100
AcDbCircle
 10
492.713774238035
 20
598.630232878755
 40
5.972862778755
  0
ARC
  5
FD
100
AcDbEntity
  8
1
  6
CONTINUOUS
 62
           3
100
AcDbCircle
 10
493.492485791694
 20
597.113678682226
 40
1.391870091328
100
AcDbArc
 50
-1.298612665717
 51
66.544866494049
  0
ARC
  5
FC
100
AcDbEntity
  8
1
  6
CONTINUOUS
 62
           3
100
AcDbCircle
 10
492.767092605204
 20
596.804484389822
 40
1.155889798232
100
AcDbArc
 50
0.985058170485
 51
82.918254632946
  0
ARC
  5
FB
100
AcDbEntity
  8
1
  6
CONTINUOUS
 62
           3
100
AcDbCircle
 10
492.8422752434
 20
600.015470930551
 40
1.257687287768
100
AcDbArc
 50
-74.800419047062
 51
80.93139523879
  0
ARC
  5
FA
100
AcDbEntity
  8
1
  6
CONTINUOUS
 62
           3
100
AcDbCircle
 10
492.920593069414
 20
600.055364921381
 40
2.009798008862
100
AcDbArc
 50
-55.929988464567
 51
86.297888718245
  0
LINE
  5
F9
100
AcDbEntity
  8
1
  6
CONTINUOUS
 62
           3
100
AcDbLine
 10
491.184535135797
 20
601.257437531278
 11
491.184535135797
 21
598.801779541276
  0
LINE
  5
F8
100
AcDbEntity
  8
1
  6
CONTINUOUS
 62
           3
100
AcDbLine
 10
493.040508127883
 20
601.257437531278
 11
491.184535135797
 21
601.257437531278
  0
LINE
  5
F7
100
AcDbEntity
  8
1
  6
CONTINUOUS
 62
           3
100
AcDbLine
 10
491.184535135797
 20
598.801779541276
 11
493.172018363739
 21
598.801779541276
  0
LINE
  5
F6
100
AcDbEntity
  8
1
  6
CONTINUOUS
 62
           3
100
AcDbLine
 10
491.184535135797
 20
595.202500788282
 11
490.312087436681
 21
595.202500788282
  0
LINE
  5
F5
100
AcDbEntity
  8
1
  6
CONTINUOUS
 62
           3
100
AcDbLine
 10
492.909596837415
 20
597.951556213842
 11
491.184535135797
 21
597.951556213842
  0
LINE
  5
F4
100
AcDbEntity
  8
1
  6
CONTINUOUS
 62
           3
100
AcDbLine
 10
493.922811577335
 20
595.202500788282
 11
493.922811577335
 21
596.8243560559
  0
LINE
  5
F3
100
AcDbEntity
  8
1
  6
CONTINUOUS
 62
           3
100
AcDbLine
 10
494.88399839284
 20
595.202500788282
 11
493.922811577335
 21
595.202500788282
  0
LINE
  5
F2
100
AcDbEntity
  8
1
  6
CONTINUOUS
 62
           3
100
AcDbLine
 10
494.88399839284
 20
597.082134554626
 11
494.88399839284
 21
595.202500788282
  0
LINE
  5
F1
100
AcDbEntity
  8
1
  6
CONTINUOUS
 62
           3
100
AcDbLine
 10
492.754007295922
 20
602.060968963456
 11
493.050363878274
 21
602.060968963456
  0
LINE
  5
F0
100
AcDbEntity
  8
1
  6
CONTINUOUS
 62
           3
100
AcDbLine
 10
490.312087436681
 20
602.060968963456
 11
492.754007295922
 21
602.060968963456
  0
LINE
  5
EF
100
AcDbEntity
  8
1
  6
CONTINUOUS
 62
           3
100
AcDbLine
 10
490.312087436681
 20
595.202500788282
 11
490.312087436681
 21
602.060968963456
  0
LINE
  5
EE
100
AcDbEntity
  8
1
  6
CONTINUOUS
 62
           3
100
AcDbLine
 10
491.184535135797
 20
597.951556213842
 11
491.184535135797
 21
595.202500788282
  0
LINE
  5
ED
100
AcDbEntity
  8
1
  6
CONTINUOUS
 62
           3
100
AcDbLine
 10
446.663299849128
 20
604.13595347832
 11
444.569222771514
 21
604.13595347832
  0
LINE
  5
EC
100
AcDbEntity
  8
1
  6
CONTINUOUS
 62
           3
100
AcDbLine
 10
443.953364701165
 20
593.075347417793
 11
446.663299849128
 21
604.13595347832
  0
LINE
  5
EB
100
AcDbEntity
  8
1
  6
CONTINUOUS
 62
           3
100
AcDbLine
 10
454.423750089185
 20
593.075347417793
 11
443.953364701165
 21
593.075347417793
  0
LINE
  5
EA
100
AcDbEntity
  8
1
  6
CONTINUOUS
 62
           3
100
AcDbLine
 10
453.881763059524
 20
590.863226205662
 11
454.423750089185
 21
593.075347417793
  0
LINE
  5
E9
100
AcDbEntity
  8
1
  6
CONTINUOUS
 62
           3
100
AcDbLine
 10
441.317300593946
 20
590.863226205662
 11
453.881763059524
 21
590.863226205662
  0
LINE
  5
E8
100
AcDbEntity
  8
1
  6
CONTINUOUS
 62
           3
100
AcDbLine
 10
444.569222771514
 20
604.13595347832
 11
441.317300593946
 21
590.863226205662
  0
LINE
  5
E7
100
AcDbEntity
  8
1
  6
CONTINUOUS
 62
           3
100
AcDbLine
 10
431.122552716656
 20
595.287468629844
 11
434.878267856022
 21
601.923832266269
  0
LINE
  5
E6
100
AcDbEntity
  8
1
  6
CONTINUOUS
 62
           3
100
AcDbLine
 10
435.935071001312
 20
601.923832266269
 11
434.878267856022
 21
601.923832266269
  0
LINE
  5
E5
100
AcDbEntity
  8
1
  6
CONTINUOUS
 62
           3
100
AcDbLine
 10
436.438863963167
 20
595.287468629844
 11
435.935071001312
 21
601.923832266269
  0
LINE
  5
E4
100
AcDbEntity
  8
1
  6
CONTINUOUS
 62
           3
100
AcDbLine
 10
431.122552716656
 20
595.287468629844
 11
436.438863963167
 21
595.287468629844
  0
LINE
  5
E3
100
AcDbEntity
  8
1
  6
CONTINUOUS
 62
           3
100
AcDbLine
 10
428.618742623762
 20
590.863226205662
 11
426.239945635191
 21
590.863226205662
  0
LINE
  5
E2
100
AcDbEntity
  8
1
  6
CONTINUOUS
 62
           3
100
AcDbLine
 10
429.870647670125
 20
593.075347417793
 11
428.618742623762
 21
590.863226205662
  0
LINE
  5
E1
100
AcDbEntity
  8
1
  6
CONTINUOUS
 62
           3
100
AcDbLine
 10
436.606794950489
 20
593.075347417793
 11
429.870647670125
 21
593.075347417793
  0
LINE
  5
E0
100
AcDbEntity
  8
1
  6
CONTINUOUS
 62
           3
100
AcDbLine
 10
436.774725937756
 20
590.863226205662
 11
436.606794950489
 21
593.075347417793
  0
LINE
  5
DF
100
AcDbEntity
  8
1
  6
CONTINUOUS
 62
           3
100
AcDbLine
 10
438.804408100825
 20
590.863226205662
 11
436.774725937756
 21
590.863226205662
  0
LINE
  5
DE
100
AcDbEntity
  8
1
  6
CONTINUOUS
 62
           3
100
AcDbLine
 10
437.796822177063
 20
604.13595347832
 11
438.804408100825
 21
590.863226205662
  0
LINE
  5
DD
100
AcDbEntity
  8
1
  6
CONTINUOUS
 62
           3
100
AcDbLine
 10
433.751375914088
 20
604.13595347832
 11
437.796822177063
 21
604.13595347832
  0
LINE
  5
DC
100
AcDbEntity
  8
1
  6
CONTINUOUS
 62
           3
100
AcDbLine
 10
426.239945635191
 20
590.863226205662
 11
433.751375914088
 21
604.13595347832
  0
LINE
  5
DB
100
AcDbEntity
  8
1
  6
CONTINUOUS
 62
           3
100
AcDbLine
 10
413.256667754157
 20
590.863226205662
 11
411.162590676597
 21
590.863226205662
  0
LINE
  5
DA
100
AcDbEntity
  8
1
  6
CONTINUOUS
 62
           3
100
AcDbLine
 10
416.062670051086
 20
602.315930538598
 11
413.256667754157
 21
590.863226205662
  0
LINE
  5
D9
100
AcDbEntity
  8
1
  6
CONTINUOUS
 62
           3
100
AcDbLine
 10
416.703218317596
 20
600.656839629535
 11
416.062670051086
 21
602.315930538598
  0
LINE
  5
D8
100
AcDbEntity
  8
1
  6
CONTINUOUS
 62
           3
100
AcDbLine
 10
420.484374653306
 20
590.863226205662
 11
416.703218317596
 21
600.656839629535
  0
LINE
  5
D7
100
AcDbEntity
  8
1
  6
CONTINUOUS
 62
           3
100
AcDbLine
 10
423.727053142075
 20
590.863226205662
 11
420.484374653306
 21
590.863226205662
  0
LINE
  5
D6
100
AcDbEntity
  8
1
  6
CONTINUOUS
 62
           3
100
AcDbLine
 10
426.978975319695
 20
604.13595347832
 11
423.727053142075
 21
590.863226205662
  0
LINE
  5
D5
100
AcDbEntity
  8
1
  6
CONTINUOUS
 62
           3
100
AcDbLine
 10
424.884898242081
 20
604.13595347832
 11
426.978975319695
 21
604.13595347832
  0
LINE
  5
D4
100
AcDbEntity
  8
1
  6
CONTINUOUS
 62
           3
100
AcDbLine
 10
422.039466336728
 20
592.522317114746
 11
424.884898242081
 21
604.13595347832
  0
LINE
  5
D3
100
AcDbEntity
  8
1
  6
CONTINUOUS
 62
           3
100
AcDbLine
 10
417.555628470453
 20
604.13595347832
 11
422.039466336728
 21
592.522317114746
  0
LINE
  5
D2
100
AcDbEntity
  8
1
  6
CONTINUOUS
 62
           3
100
AcDbLine
 10
414.414512854112
 20
604.13595347832
 11
417.555628470453
 21
604.13595347832
  0
LINE
  5
D1
100
AcDbEntity
  8
1
  6
CONTINUOUS
 62
           3
100
AcDbLine
 10
411.162590676597
 20
590.863226205662
 11
414.414512854112
 21
604.13595347832
  0
LINE
  5
D0
100
AcDbEntity
  8
1
  6
CONTINUOUS
 62
           3
100
AcDbLine
 10
411.901620360997
 20
604.13595347832
 11
409.807543283432
 21
604.13595347832
  0
LINE
  5
CF
100
AcDbEntity
  8
1
  6
CONTINUOUS
 62
           3
100
AcDbLine
 10
409.807543283432
 20
604.13595347832
 11
406.555621105867
 21
590.863226205662
  0
LINE
  5
CE
100
AcDbEntity
  8
1
  6
CONTINUOUS
 62
           3
100
AcDbLine
 10
408.649698183427
 20
590.863226205662
 11
411.901620360997
 21
604.13595347832
  0
LINE
  5
CD
100
AcDbEntity
  8
1
  6
CONTINUOUS
 62
           3
100
AcDbLine
 10
406.555621105867
 20
590.863226205662
 11
408.649698183427
 21
590.863226205662
  0
LINE
  5
CC
100
AcDbEntity
  8
1
  6
CONTINUOUS
 62
           3
100
AcDbLine
 10
404.06240095062
 20
599.490498932891
 11
406.156478028146
 21
599.490498932891
  0
LINE
  5
CB
100
AcDbEntity
  8
1
  6
CONTINUOUS
 62
           3
100
AcDbLine
 10
403.03262559447
 20
595.287468629844
 11
402.490638564703
 21
593.075347417793
  0
LINE
  5
CA
100
AcDbEntity
  8
1
  6
CONTINUOUS
 62
           3
100
AcDbLine
 10
398.84447143907
 20
595.287468629844
 11
403.03262559447
 21
595.287468629844
  0
LINE
  5
C9
100
AcDbEntity
  8
1
  6
CONTINUOUS
 62
           3
100
AcDbLine
 10
399.386458468717
 20
597.499589842033
 11
398.84447143907
 21
595.287468629844
  0
LINE
  5
C8
100
AcDbEntity
  8
1
  6
CONTINUOUS
 62
           3
100
AcDbLine
 10
405.668689701523
 20
597.499589842033
 11
404.042728612751
 21
590.863226205662
  0
LINE
  5
C7
100
AcDbEntity
  8
1
  6
CONTINUOUS
 62
           3
100
AcDbLine
 10
405.668689701523
 20
597.499589842033
 11
399.386458468717
 21
597.499589842033
  0
LINE
  5
C6
100
AcDbEntity
  8
1
  6
CONTINUOUS
 62
           3
100
AcDbLine
 10
394.114330254374
 20
593.075347417793
 11
396.282278372701
 21
601.923832266269
  0
LINE
  5
C5
100
AcDbEntity
  8
1
  6
CONTINUOUS
 62
           3
100
AcDbLine
 10
396.282278372701
 20
601.923832266269
 11
404.658586682997
 21
601.923832266269
  0
LINE
  5
C4
100
AcDbEntity
  8
1
  6
CONTINUOUS
 62
           3
100
AcDbLine
 10
404.658586682997
 20
601.923832266269
 11
404.06240095062
 21
599.490498932891
  0
LINE
  5
C3
100
AcDbEntity
  8
1
  6
CONTINUOUS
 62
           3
100
AcDbLine
 10
402.490638564703
 20
593.075347417793
 11
394.114330254374
 21
593.075347417793
  0
LINE
  5
C2
100
AcDbEntity
  8
1
  6
CONTINUOUS
 62
           3
100
AcDbLine
 10
404.042728612751
 20
590.863226205662
 11
391.478266147138
 21
590.863226205662
  0
LINE
  5
C1
100
AcDbEntity
  8
1
  6
CONTINUOUS
 62
           3
100
AcDbLine
 10
407.294650790273
 20
604.13595347832
 11
406.156478028146
 21
599.490498932891
  0
LINE
  5
C0
100
AcDbEntity
  8
1
  6
CONTINUOUS
 62
           3
100
AcDbLine
 10
394.730188324682
 20
604.13595347832
 11
407.294650790273
 21
604.13595347832
  0
LINE
  5
BF
100
AcDbEntity
  8
1
  6
CONTINUOUS
 62
           3
100
AcDbLine
 10
391.478266147138
 20
590.863226205662
 11
394.730188324682
 21
604.13595347832
  0
LINE
  5
BE
100
AcDbEntity
  8
1
  6
CONTINUOUS
 62
           3
100
AcDbLine
 10
388.965373654153
 20
590.863226205662
 11
392.217295831563
 21
604.13595347832
  0
LINE
  5
BD
100
AcDbEntity
  8
1
  6
CONTINUOUS
 62
           3
100
AcDbLine
 10
386.871296576434
 20
590.863226205662
 11
388.965373654153
 21
590.863226205662
  0
LINE
  5
BC
100
AcDbEntity
  8
1
  6
CONTINUOUS
 62
           3
100
AcDbLine
 10
390.123218753999
 20
604.13595347832
 11
386.871296576434
 21
590.863226205662
  0
LINE
  5
BB
100
AcDbEntity
  8
1
  6
CONTINUOUS
 62
           3
100
AcDbLine
 10
392.217295831563
 20
604.13595347832
 11
390.123218753999
 21
604.13595347832
  0
LINE
  5
BA
100
AcDbEntity
  8
1
  6
CONTINUOUS
 62
           3
100
AcDbLine
 10
373.888018695396
 20
590.863226205662
 11
374.971992754507
 21
595.287468629844
  0
LINE
  5
B9
100
AcDbEntity
  8
1
  6
CONTINUOUS
 62
           3
100
AcDbLine
 10
371.79394161772
 20
590.863226205662
 11
373.888018695396
 21
590.863226205662
  0
LINE
  5
B8
100
AcDbEntity
  8
1
  6
CONTINUOUS
 62
           3
100
AcDbLine
 10
385.306122469416
 20
594.731340810781
 11
384.358404083303
 21
590.863226205662
  0
LINE
  5
B7
100
AcDbEntity
  8
1
  6
CONTINUOUS
 62
           3
100
AcDbLine
 10
376.597953843282
 20
601.923832266269
 11
375.513979784099
 21
597.499589842033
  0
LINE
  5
B6
100
AcDbEntity
  8
1
  6
CONTINUOUS
 62
           3
100
AcDbLine
 10
384.974262153801
 20
601.923832266269
 11
376.597953843282
 21
601.923832266269
  0
LINE
  5
B5
100
AcDbEntity
  8
1
  6
CONTINUOUS
 62
           3
100
AcDbLine
 10
383.890288094479
 20
597.499589842033
 11
384.974262153801
 21
601.923832266269
  0
LINE
  5
B4
100
AcDbEntity
  8
1
  6
CONTINUOUS
 62
           3
100
AcDbLine
 10
375.513979784099
 20
597.499589842033
 11
383.890288094479
 21
597.499589842033
  0
LINE
  5
B3
100
AcDbEntity
  8
1
  6
CONTINUOUS
 62
           3
100
AcDbLine
 10
383.348301065036
 20
595.287468629844
 11
374.971992754507
 21
595.287468629844
  0
LINE
  5
B2
100
AcDbEntity
  8
1
  6
CONTINUOUS
 62
           3
100
AcDbLine
 10
382.264327005663
 20
590.863226205662
 11
383.348301065036
 21
595.287468629844
  0
LINE
  5
B1
100
AcDbEntity
  8
1
  6
CONTINUOUS
 62
           3
100
AcDbLine
 10
384.358404083303
 20
590.863226205662
 11
382.264327005663
 21
590.863226205662
  0
LINE
  5
B0
100
AcDbEntity
  8
1
  6
CONTINUOUS
 62
           3
100
AcDbLine
 10
387.610326260836
 20
604.135953478319
 11
385.742802150982
 21
596.513649858332
  0
LINE
  5
AF
100
AcDbEntity
  8
1
  6
CONTINUOUS
 62
           3
100
AcDbLine
 10
375.045863795256
 20
604.13595347832
 11
387.610326260836
 21
604.135953478319
  0
LINE
  5
AE
100
AcDbEntity
  8
1
  6
CONTINUOUS
 62
           3
100
AcDbLine
 10
375.045863795256
 20
604.13595347832
 11
371.79394161772
 21
590.863226205662
  0
LINE
  5
AD
100
AcDbEntity
  8
1
  6
CONTINUOUS
 62
           3
100
AcDbLine
 10
359.35265076623
 20
593.075347417793
 11
361.520598884572
 21
601.923832266269
  0
LINE
  5
AC
100
AcDbEntity
  8
1
  6
CONTINUOUS
 62
           3
100
AcDbLine
 10
361.520598884572
 20
601.923832266269
 11
369.896907195061
 21
601.923832266269
  0
LINE
  5
AB
100
AcDbEntity
  8
1
  6
CONTINUOUS
 62
           3
100
AcDbLine
 10
369.896907195061
 20
601.923832266269
 11
367.728959076585
 21
593.075347417793
  0
LINE
  5
AA
100
AcDbEntity
  8
1
  6
CONTINUOUS
 62
           3
100
AcDbLine
 10
367.728959076585
 20
593.075347417793
 11
359.35265076623
 21
593.075347417793
  0
LINE
  5
A9
100
AcDbEntity
  8
1
  6
CONTINUOUS
 62
           3
100
AcDbLine
 10
369.281049124589
 20
590.863226205662
 11
356.716586659064
 21
590.863226205662
  0
LINE
  5
A8
100
AcDbEntity
  8
1
  6
CONTINUOUS
 62
           3
100
AcDbLine
 10
372.532971302264
 20
604.13595347832
 11
369.281049124589
 21
590.863226205662
  0
LINE
  5
A7
100
AcDbEntity
  8
1
  6
CONTINUOUS
 62
           3
100
AcDbLine
 10
359.968508836546
 20
604.135953478319
 11
372.532971302264
 21
604.13595347832
  0
LINE
  5
A6
100
AcDbEntity
  8
1
  6
CONTINUOUS
 62
           3
100
AcDbLine
 10
356.716586659064
 20
590.863226205662
 11
359.968508836546
 21
604.135953478319
  0
LINE
  5
A5
100
AcDbEntity
  8
1
  6
CONTINUOUS
 62
           3
100
AcDbLine
 10
500.307402152304
 20
547.751445
 11
447.716600733494
 21
547.751445
  0
LINE
  5
A4
100
AcDbEntity
  8
1
  6
CONTINUOUS
 62
           3
100
AcDbLine
 10
497.906729785786
 20
553.94538439391
 11
455.097580233613
 21
553.94538439391
  0
LINE
  5
A3
100
AcDbEntity
  8
1
  6
CONTINUOUS
 62
           3
100
AcDbLine
 10
497.906729785786
 20
553.94538439391
 11
500.307402152304
 21
547.751445
  0
LINE
  5
A2
100
AcDbEntity
  8
1
  6
CONTINUOUS
 62
           3
100
AcDbLine
 10
490.664729709004
 20
572.630362066824
 11
487.884876585047
 21
579.802620145079
  0
LINE
  5
A1
100
AcDbEntity
  8
1
  6
CONTINUOUS
 62
           3
100
AcDbLine
 10
496.26195588929
 20
579.802620145079
 11
490.664729709004
 21
572.630362066824
  0
LINE
  5
A0
100
AcDbEntity
  8
1
  6
CONTINUOUS
 62
           3
100
AcDbLine
 10
500.307402152348
 20
579.802620145079
 11
496.26195588929
 21
579.802620145079
  0
LINE
  5
9F
100
AcDbEntity
  8
1
  6
CONTINUOUS
 62
           3
100
AcDbLine
 10
492.007172107265
 20
569.166746218603
 11
500.307402152348
 21
579.802620145079
  0
LINE
  5
9E
100
AcDbEntity
  8
1
  6
CONTINUOUS
 62
           3
100
AcDbLine
 10
496.87787020027
 20
556.599929848477
 11
492.007172107265
 21
569.166746218603
  0
LINE
  5
9D
100
AcDbEntity
  8
1
  6
CONTINUOUS
 62
           3
100
AcDbLine
 10
492.832423937221
 20
556.599929848477
 11
496.87787020027
 21
556.599929848477
  0
LINE
  5
9C
100
AcDbEntity
  8
1
  6
CONTINUOUS
 62
           3
100
AcDbLine
 10
489.304168242537
 20
565.703130370502
 11
492.832423937221
 21
556.599929848477
  0
LINE
  5
9B
100
AcDbEntity
  8
1
  6
CONTINUOUS
 62
           3
100
AcDbLine
 10
482.200035662436
 20
556.599929848477
 11
489.304168242537
 21
565.703130370502
  0
LINE
  5
9A
100
AcDbEntity
  8
1
  6
CONTINUOUS
 62
           3
100
AcDbLine
 10
478.154589399439
 20
556.599929848477
 11
482.200035662436
 21
556.599929848477
  0
LINE
  5
99
100
AcDbEntity
  8
1
  6
CONTINUOUS
 62
           3
100
AcDbLine
 10
487.961725844229
 20
569.166746218661
 11
478.154589399439
 21
556.599929848477
  0
LINE
  5
98
100
AcDbEntity
  8
1
  6
CONTINUOUS
 62
           3
100
AcDbLine
 10
483.839430322032
 20
579.802620145079
 11
487.961725844229
 21
569.166746218661
  0
LINE
  5
97
100
AcDbEntity
  8
1
  6
CONTINUOUS
 62
           3
100
AcDbLine
 10
487.884876585047
 20
579.802620145079
 11
483.839430322032
 21
579.802620145079
  0
LINE
  5
96
100
AcDbEntity
  8
1
  6
CONTINUOUS
 62
           3
100
AcDbLine
 10
470.856152440987
 20
579.802620145079
 11
465.620959747065
 21
579.802620145079
  0
LINE
  5
95
100
AcDbEntity
  8
1
  6
CONTINUOUS
 62
           3
100
AcDbLine
 10
466.255285577636
 20
561.024172272797
 11
470.856152440987
 21
579.802620145079
  0
LINE
  5
94
100
AcDbEntity
  8
1
  6
CONTINUOUS
 62
           3
100
AcDbLine
 10
471.490478271588
 20
561.024172272797
 11
466.255285577636
 21
561.024172272797
  0
LINE
  5
93
100
AcDbEntity
  8
1
  6
CONTINUOUS
 62
           3
100
AcDbLine
 10
476.091345134983
 20
579.802620145079
 11
471.490478271588
 21
561.024172272797
  0
LINE
  5
92
100
AcDbEntity
  8
1
  6
CONTINUOUS
 62
           3
100
AcDbLine
 10
481.326537828906
 20
579.802620145079
 11
476.091345134983
 21
579.802620145079
  0
LINE
  5
91
100
AcDbEntity
  8
1
  6
CONTINUOUS
 62
           3
100
AcDbLine
 10
475.641696906298
 20
556.599929848477
 11
481.326537828906
 21
579.802620145079
  0
LINE
  5
90
100
AcDbEntity
  8
1
  6
CONTINUOUS
 62
           3
100
AcDbLine
 10
459.936118824376
 20
556.599929848477
 11
475.641696906298
 21
556.599929848477
  0
LINE
  5
8F
100
AcDbEntity
  8
1
  6
CONTINUOUS
 62
           3
100
AcDbLine
 10
465.620959747065
 20
579.802620145079
 11
459.936118824376
 21
556.599929848477
  0
LINE
  5
8E
100
AcDbEntity
  8
1
  6
CONTINUOUS
 62
           3
100
AcDbLine
 10
458.279324922436
 20
590.863226205662
 11
447.716600733494
 21
547.751445
  0
LINE
  5
8D
100
AcDbEntity
  8
1
  6
CONTINUOUS
 62
           3
100
AcDbLine
 10
464.142740739704
 20
590.863226205662
 11
458.279324922436
 21
590.863226205662
  0
LINE
  5
8C
100
AcDbEntity
  8
1
  6
CONTINUOUS
 62
           3
100
AcDbLine
 10
455.097580233613
 20
553.94538439391
 11
464.142740739704
 21
590.863226205662
  0
LINE
  5
8B
100
AcDbEntity
  8
1
  6
CONTINUOUS
 62
           3
100
AcDbLine
 10
319.977899000098
 20
547.751445
 11
327.830688041153
 21
579.802620145079
  0
LINE
  5
8A
100
AcDbEntity
  8
1
  6
CONTINUOUS
 62
           3
100
AcDbLine
 10
327.830688041153
 20
579.802620145079
 11
334.11291927385
 21
579.802620145079
  0
LINE
  5
89
100
AcDbEntity
  8
1
  6
CONTINUOUS
 62
           3
100
AcDbLine
 10
334.11291927385
 20
579.802620145079
 11
327.344104292161
 21
552.175687424182
  0
LINE
  5
88
100
AcDbEntity
  8
1
  6
CONTINUOUS
 62
           3
100
AcDbLine
 10
327.344104292161
 20
552.175687424182
 11
332.579296986039
 21
552.175687424182
  0
LINE
  5
87
100
AcDbEntity
  8
1
  6
CONTINUOUS
 62
           3
100
AcDbLine
 10
332.579296986039
 20
552.175687424182
 11
340.703079541922
 21
585.332923175405
  0
LINE
  5
86
100
AcDbEntity
  8
1
  6
CONTINUOUS
 62
           3
100
AcDbLine
 10
340.703079541922
 20
585.332923175405
 11
323.011983697388
 21
585.332923175405
  0
LINE
  5
85
100
AcDbEntity
  8
1
  6
CONTINUOUS
 62
           3
100
AcDbLine
 10
323.011983697388
 20
585.332923175405
 11
324.366951271373
 21
590.863226205662
  0
LINE
  5
84
100
AcDbEntity
  8
1
  6
CONTINUOUS
 62
           3
100
AcDbLine
 10
324.366951271373
 20
590.863226205662
 11
348.340278348665
 21
590.863226205662
  0
LINE
  5
83
100
AcDbEntity
  8
1
  6
CONTINUOUS
 62
           3
100
AcDbLine
 10
348.340278348665
 20
590.863226205662
 11
337.777554159746
 21
547.751445
  0
LINE
  5
82
100
AcDbEntity
  8
1
  6
CONTINUOUS
 62
           3
100
AcDbLine
 10
337.777554159746
 20
547.751445
 11
319.977899000098
 21
547.751445
  0
LINE
  5
81
100
AcDbEntity
  8
1
  6
CONTINUOUS
 62
           3
100
AcDbLine
 10
341.965708314872
 20
547.751445
 11
349.818497355866
 21
579.802620145079
  0
LINE
  5
80
100
AcDbEntity
  8
1
  6
CONTINUOUS
 62
           3
100
AcDbLine
 10
349.818497355866
 20
579.802620145079
 11
356.100728588675
 21
579.802620145079
  0
LINE
  5
7F
100
AcDbEntity
  8
1
  6
CONTINUOUS
 62
           3
100
AcDbLine
 10
356.100728588675
 20
579.802620145079
 11
349.33191360688
 21
552.175687424182
  0
LINE
  5
7E
100
AcDbEntity
  8
1
  6
CONTINUOUS
 62
           3
100
AcDbLine
 10
349.33191360688
 20
552.175687424182
 11
354.567106300865
 21
552.175687424182
  0
LINE
  5
7D
100
AcDbEntity
  8
1
  6
CONTINUOUS
 62
           3
100
AcDbLine
 10
354.567106300865
 20
552.175687424182
 11
361.335921282671
 21
579.802620145079
  0
LINE
  5
7C
100
AcDbEntity
  8
1
  6
CONTINUOUS
 62
           3
100
AcDbLine
 10
359.765363474462
 20
547.751445
 11
341.965708314872
 21
547.751445
  0
LINE
  5
7B
100
AcDbEntity
  8
1
  6
CONTINUOUS
 62
           3
100
AcDbLine
 10
361.335921282671
 20
579.802620145079
 11
367.618152515477
 21
579.802620145079
  0
LINE
  5
7A
100
AcDbEntity
  8
1
  6
CONTINUOUS
 62
           3
100
AcDbLine
 10
367.618152515477
 20
579.802620145079
 11
359.765363474462
 21
547.751445
  0
LINE
  5
79
100
AcDbEntity
  8
1
  6
CONTINUOUS
 62
           3
100
AcDbLine
 10
388.558923291412
 20
579.802620145079
 11
371.80630667064
 21
579.802620145079
  0
LINE
  5
78
100
AcDbEntity
  8
1
  6
CONTINUOUS
 62
           3
100
AcDbLine
 10
371.80630667064
 20
579.802620145079
 11
367.205439807249
 21
561.024172272797
  0
LINE
  5
77
100
AcDbEntity
  8
1
  6
CONTINUOUS
 62
           3
100
AcDbLine
 10
367.205439807249
 20
561.024172272797
 11
377.675825195214
 21
561.024172272797
  0
LINE
  5
76
100
AcDbEntity
  8
1
  6
CONTINUOUS
 62
           3
100
AcDbLine
 10
377.675825195214
 20
561.024172272797
 11
375.507877076796
 21
552.175687424182
  0
LINE
  5
75
100
AcDbEntity
  8
1
  6
CONTINUOUS
 62
           3
100
AcDbLine
 10
375.507877076796
 20
552.175687424182
 11
365.037491688885
 21
552.175687424182
  0
LINE
  5
74
100
AcDbEntity
  8
1
  6
CONTINUOUS
 62
           3
100
AcDbLine
 10
365.037491688885
 20
552.175687424182
 11
363.953517629578
 21
547.751445
  0
LINE
  5
73
100
AcDbEntity
  8
1
  6
CONTINUOUS
 62
           3
100
AcDbLine
 10
363.953517629578
 20
547.751445
 11
380.7061342504
 21
547.751445
  0
LINE
  5
72
100
AcDbEntity
  8
1
  6
CONTINUOUS
 62
           3
100
AcDbLine
 10
380.7061342504
 20
547.751445
 11
385.042030487324
 21
565.448414696953
  0
LINE
  5
71
100
AcDbEntity
  8
1
  6
CONTINUOUS
 62
           3
100
AcDbLine
 10
385.042030487324
 20
565.448414696953
 11
374.57164509926
 21
565.448414696953
  0
LINE
  5
70
100
AcDbEntity
  8
1
  6
CONTINUOUS
 62
           3
100
AcDbLine
 10
374.57164509926
 20
565.448414696953
 11
377.004563844273
 21
575.378377720839
  0
LINE
  5
6F
100
AcDbEntity
  8
1
  6
CONTINUOUS
 62
           3
100
AcDbLine
 10
377.004563844273
 20
575.378377720839
 11
387.474949232253
 21
575.378377720839
  0
LINE
  5
6E
100
AcDbEntity
  8
1
  6
CONTINUOUS
 62
           3
100
AcDbLine
 10
387.474949232253
 20
575.378377720839
 11
388.558923291412
 21
579.802620145079
  0
LINE
  5
6D
100
AcDbEntity
  8
1
  6
CONTINUOUS
 62
           3
100
AcDbLine
 10
406.78975891942
 20
568.742014084413
 11
409.49969406735
 21
579.802620145079
  0
LINE
  5
6C
100
AcDbEntity
  8
1
  6
CONTINUOUS
 62
           3
100
AcDbLine
 10
409.49969406735
 20
579.802620145079
 11
392.747077446629
 21
579.802620145079
  0
LINE
  5
6B
100
AcDbEntity
  8
1
  6
CONTINUOUS
 62
           3
100
AcDbLine
 10
392.747077446629
 20
579.802620145079
 11
384.894288405636
 21
547.751445
  0
LINE
  5
6A
100
AcDbEntity
  8
1
  6
CONTINUOUS
 62
           3
100
AcDbLine
 10
384.894288405636
 20
547.751445
 11
401.64690502639
 21
547.751445
  0
LINE
  5
69
100
AcDbEntity
  8
1
  6
CONTINUOUS
 62
           3
100
AcDbLine
 10
401.64690502639
 20
547.751445
 11
404.356840174364
 21
558.812051060608
  0
LINE
  5
68
100
AcDbEntity
  8
1
  6
CONTINUOUS
 62
           3
100
AcDbLine
 10
404.356840174364
 20
558.812051060608
 11
398.074608941576
 21
558.812051060608
  0
LINE
  5
67
100
AcDbEntity
  8
1
  6
CONTINUOUS
 62
           3
100
AcDbLine
 10
398.074608941576
 20
558.812051060608
 11
396.448647852789
 21
552.175687424182
  0
LINE
  5
66
100
AcDbEntity
  8
1
  6
CONTINUOUS
 62
           3
100
AcDbLine
 10
396.448647852789
 20
552.175687424182
 11
392.260493697586
 21
552.175687424182
  0
LINE
  5
65
100
AcDbEntity
  8
1
  6
CONTINUOUS
 62
           3
100
AcDbLine
 10
392.260493697586
 20
552.175687424182
 11
397.945334620216
 21
575.378377720839
  0
LINE
  5
64
100
AcDbEntity
  8
1
  6
CONTINUOUS
 62
           3
100
AcDbLine
 10
397.945334620216
 20
575.378377720839
 11
402.133488775407
 21
575.378377720839
  0
LINE
  5
63
100
AcDbEntity
  8
1
  6
CONTINUOUS
 62
           3
100
AcDbLine
 10
402.133488775407
 20
575.378377720839
 11
400.507527686614
 21
568.742014084413
  0
LINE
  5
62
100
AcDbEntity
  8
1
  6
CONTINUOUS
 62
           3
100
AcDbLine
 10
400.507527686614
 20
568.742014084413
 11
406.78975891942
 21
568.742014084413
  0
LINE
  5
61
100
AcDbEntity
  8
1
  6
CONTINUOUS
 62
           3
100
AcDbLine
 10
405.835059181571
 20
547.751445
 11
412.117290414359
 21
547.751445
  0
LINE
  5
60
100
AcDbEntity
  8
1
  6
CONTINUOUS
 62
           3
100
AcDbLine
 10
422.587675802434
 20
547.751445
 11
430.440464843449
 21
579.802620145079
  0
LINE
  5
5F
100
AcDbEntity
  8
1
  6
CONTINUOUS
 62
           3
100
AcDbLine
 10
416.305444569537
 20
547.751445
 11
419.689852060432
 21
561.564911360341
  0
LINE
  5
5E
100
AcDbEntity
  8
1
  6
CONTINUOUS
 62
           3
100
AcDbLine
 10
412.117290414359
 20
547.751445
 11
415.501697905244
 21
561.564911360341
  0
LINE
  5
5D
100
AcDbEntity
  8
1
  6
CONTINUOUS
 62
           3
100
AcDbLine
 10
413.687848222564
 20
579.802620145079
 11
405.835059181571
 21
547.751445
  0
LINE
  5
5C
100
AcDbEntity
  8
1
  6
CONTINUOUS
 62
           3
100
AcDbLine
 10
430.440464843449
 20
579.802620145079
 11
424.158233610533
 21
579.802620145079
  0
LINE
  5
5B
100
AcDbEntity
  8
1
  6
CONTINUOUS
 62
           3
100
AcDbLine
 10
426.77582995756
 20
547.751445
 11
443.528446578368
 21
547.751445
  0
LINE
  5
5A
100
AcDbEntity
  8
1
  6
CONTINUOUS
 62
           3
100
AcDbLine
 10
438.330189404666
 20
552.175687424182
 11
434.142035249565
 21
552.175687424182
  0
LINE
  5
59
100
AcDbEntity
  8
1
  6
CONTINUOUS
 62
           3
100
AcDbLine
 10
434.628618998557
 20
579.802620145079
 11
426.77582995756
 21
547.751445
  0
LINE
  5
58
100
AcDbEntity
  8
1
  6
CONTINUOUS
 62
           3
100
AcDbLine
 10
434.142035249565
 20
552.175687424182
 11
439.82687617214
 21
575.378377720839
  0
LINE
  5
57
100
AcDbEntity
  8
1
  6
CONTINUOUS
 62
           3
100
AcDbLine
 10
451.381235619387
 20
579.802620145079
 11
434.628618998557
 21
579.802620145079
  0
LINE
  5
56
100
AcDbEntity
  8
1
  6
CONTINUOUS
 62
           3
100
AcDbLine
 10
439.82687617214
 20
575.378377720839
 11
444.01503032739
 21
575.378377720839
  0
LINE
  5
55
100
AcDbEntity
  8
1
  6
CONTINUOUS
 62
           3
100
AcDbLine
 10
444.01503032739
 20
575.378377720839
 11
438.330189404666
 21
552.175687424182
  0
LINE
  5
54
100
AcDbEntity
  8
1
  6
CONTINUOUS
 62
           3
100
AcDbLine
 10
451.381235619387
 20
579.802620145079
 11
443.528446578368
 21
547.751445
  0
LINE
  5
53
100
AcDbEntity
  8
1
  6
CONTINUOUS
 62
           3
100
AcDbLine
 10
419.970079455429
 20
579.802620145079
 11
413.687848222564
 21
579.802620145079
  0
LINE
  5
52
100
AcDbEntity
  8
1
  6
CONTINUOUS
 62
           3
100
AcDbLine
 10
416.305444569537
 20
547.751445
 11
422.587675802434
 21
547.751445
  0
LINE
  5
51
100
AcDbEntity
  8
1
  6
CONTINUOUS
 62
           3
100
AcDbLine
 10
415.501697905244
 20
561.564911360341
 11
419.689852060432
 21
561.564911360341
  0
LINE
  5
50
100
AcDbEntity
  8
1
  6
CONTINUOUS
 62
           3
100
AcDbLine
 10
416.585671964412
 20
565.989153784527
 11
420.773826119652
 21
565.989153784527
  0
LINE
  5
4F
100
AcDbEntity
  8
1
  6
CONTINUOUS
 62
           3
100
AcDbLine
 10
416.585671964412
 20
565.989153784527
 11
419.970079455429
 21
579.802620145079
  0
LINE
  5
4E
100
AcDbEntity
  8
1
  6
CONTINUOUS
 62
           3
100
AcDbLine
 10
420.773826119652
 20
565.989153784527
 11
424.158233610533
 21
579.802620145079
  0
LINE
  5
4D
100
AcDbEntity
  8
1
  6
CONTINUOUS
 62
           3
100
AcDbLine
 10
385.742802150982
 20
596.513649858332
 11
385.010719382035
 21
595.729892872362
  0
LINE
  5
4C
100
AcDbEntity
  8
1
  6
CONTINUOUS
 62
           3
100
AcDbLine
 10
385.306122469416
 20
594.731340810781
 11
385.010719382035
 21
595.729892872362
  0
ENDBLK
  5
100
100
AcDbEntity
  8
0
100
AcDbBlockEnd
  0
ENDSEC
  0
SECTION
  2
ENTITIES
  0
TEXT
  5
104
100
AcDbEntity
  8
1
 62
           2
100
AcDbText
 10
319.977899000098
 20
457.751445
 40
35.0
  1
Prime-line 266
 41
0.71262
  7
CONVERTER_1
100
AcDbText
  0
MTEXT
  5
103
100
AcDbEntity
  8
1
 62
           3
100
AcDbMText
 10
850.0
 20
359.0
 30
0.0
 40
35.0
 41
0.0
 71
           9
 72
           1
  1
ø 52
  7
CONVERTER_1
  0
INSERT
  5
2E
100
AcDbEntity
  8
0
100
AcDbBlockReference
  2
WANNE_PRIME_LINE_266
 10
0.0
 20
0.0
  0
INSERT
  5
2F
100
AcDbEntity
  8
0
100
AcDbBlockReference
  2
DLX
 10
0.0
 20
0.0
  0
ENDSEC
  0
SECTION
  2
OBJECTS
  0
DICTIONARY
  5
19
100
AcDbDictionary
  3
ACAD_GROUP
350
1A
  3
ACAD_MLINESTYLE
350
1B
  0
DICTIONARY
  5
1A
102
{ACAD_REACTORS
330
19
102
}
100
AcDbDictionary
  0
DICTIONARY
  5
1B
102
{ACAD_REACTORS
330
19
102
}
100
AcDbDictionary
  3
STANDARD
350
1C
  0
MLINESTYLE
  5
1C
102
{ACAD_REACTORS
330
1B
102
}
100
AcDbMlineStyle
  2
STANDARD
 70
           0
  3

 62
           0
 51
90.0
 52
90.0
 71
           2
 49
0.5
 62
         256
  6
BYLAYER
 49
-0.5
 62
         256
  6
BYLAYER
  0
ENDSEC
  0
EOF
