  0
SECTION
  2
HEADER
  9
$ACADVER
  1
AC1014
  9
$ACADMAINTVER
 70
           0
  9
$DWGCODEPAGE
  3
ANSI_1252
  9
$INSBASE
 10
0.0
 20
0.0
 30
0.0
  9
$EXTMIN
 10
1.000000000000E+20
 20
1.000000000000E+20
 30
1.000000000000E+20
  9
$EXTMAX
 10
-1.000000000000E+20
 20
-1.000000000000E+20
 30
-1.000000000000E+20
  9
$LIMMIN
 10
0.0
 20
0.0
  9
$LIMMAX
 10
0.0
 20
0.0
  9
$ORTHOMODE
 70
           0
  9
$REGENMODE
 70
           1
  9
$FILLMODE
 70
           1
  9
$QTEXTMODE
 70
           0
  9
$MIRRTEXT
 70
           1
  9
$DRAGMODE
 70
           2
  9
$LTSCALE
 40
1.0
  9
$OSMODE
 70
           0
  9
$ATTMODE
 70
           1
  9
$TEXTSIZE
 40
0.2
  9
$TRACEWID
 40
0.05
  9
$TEXTSTYLE
  7
STANDARD
  9
$CLAYER
  8
0
  9
$CELTYPE
  6
CONTINUOUS
  9
$CECOLOR
 62
         256
  9
$CELTSCALE
 40
1.0
  9
$DELOBJ
 70
           1
  9
$DISPSILH
 70
           0
  9
$DIMSCALE
 40
1.0
  9
$DIMASZ
 40
0.18
  9
$DIMEXO
 40
0.0625
  9
$DIMDLI
 40
0.38
  9
$DIMRND
 40
0.0
  9
$DIMDLE
 40
0.0
  9
$DIMEXE
 40
0.18
  9
$DIMTP
 40
0.0
  9
$DIMTM
 40
0.0
  9
$DIMTXT
 40
0.18
  9
$DIMCEN
 40
0.09
  9
$DIMTSZ
 40
0.0
  9
$DIMTOL
 70
           0
  9
$DIMLIM
 70
           0
  9
$DIMTIH
 70
           1
  9
$DIMTOH
 70
           1
  9
$DIMSE1
 70
           0
  9
$DIMSE2
 70
           0
  9
$DIMTAD
 70
           0
  9
$DIMZIN
 70
           0
  9
$DIMBLK
  1

  9
$DIMASO
 70
           1
  9
$DIMSHO
 70
           1
  9
$DIMPOST
  1

  9
$DIMAPOST
  1

  9
$DIMALT
 70
           0
  9
$DIMALTD
 70
           2
  9
$DIMALTF
 40
25.4
  9
$DIMLFAC
 40
1.0
  9
$DIMTOFL
 70
           0
  9
$DIMTVP
 40
0.0
  9
$DIMTIX
 70
           0
  9
$DIMSOXD
 70
           0
  9
$DIMSAH
 70
           0
  9
$DIMBLK1
  1

  9
$DIMBLK2
  1

  9
$DIMSTYLE
  2
STANDARD
  9
$DIMCLRD
 70
           0
  9
$DIMCLRE
 70
           0
  9
$DIMCLRT
 70
           0
  9
$DIMTFAC
 40
1.0
  9
$DIMGAP
 40
0.09
  9
$DIMJUST
 70
           0
  9
$DIMSD1
 70
           0
  9
$DIMSD2
 70
           0
  9
$DIMTOLJ
 70
           1
  9
$DIMTZIN
 70
           0
  9
$DIMALTZ
 70
           0
  9
$DIMALTTZ
 70
           0
  9
$DIMFIT
 70
           3
  9
$DIMUPT
 70
           0
  9
$DIMUNIT
 70
           2
  9
$DIMDEC
 70
           4
  9
$DIMTDEC
 70
           4
  9
$DIMALTU
 70
           2
  9
$DIMALTTD
 70
           2
  9
$DIMTXSTY
  7
STANDARD
  9
$DIMAUNIT
 70
           0
  9
$LUNITS
 70
           2
  9
$LUPREC
 70
           4
  9
$SKETCHINC
 40
0.1
  9
$FILLETRAD
 40
0.0
  9
$AUNITS
 70
           0
  9
$AUPREC
 70
           0
  9
$MENU
  1
acad
  9
$ELEVATION
 40
0.0
  9
$PELEVATION
 40
0.0
  9
$THICKNESS
 40
0.0
  9
$LIMCHECK
 70
           0
  9
$BLIPMODE
 70
           1
  9
$CHAMFERA
 40
0.0
  9
$CHAMFERB
 40
0.0
  9
$CHAMFERC
 40
0.0
  9
$CHAMFERD
 40
0.0
  9
$SKPOLY
 70
           0
  9
$TDCREATE
 40
0.000000000
  9
$TDUPDATE
 40
0.000000000
  9
$TDINDWG
 40
0.0000000000
  9
$TDUSRTIMER
 40
0.0000000000
  9
$USRTIMER
 70
           1
  9
$ANGBASE
 50
0.0
  9
$ANGDIR
 70
           0
  9
$PDMODE
 70
           0
  9
$PDSIZE
 40
0.0
  9
$PLINEWID
 40
0.0
  9
$COORDS
 70
           0
  9
$SPLFRAME
 70
           0
  9
$SPLINETYPE
 70
           6
  9
$SPLINESEGS
 70
           8
  9
$ATTDIA
 70
           0
  9
$ATTREQ
 70
           1
  9
$HANDLING
 70
           1
  9
$HANDSEED
  5
104
  9
$SURFTAB1
 70
           6
  9
$SURFTAB2
 70
           6
  9
$SURFTYPE
 70
           6
  9
$SURFU
 70
           6
  9
$SURFV
 70
           6
  9
$UCSNAME
  2

  9
$UCSORG
 10
0.0
 20
0.0
 30
0.0
  9
$UCSXDIR
 10
1.0
 20
0.0
 30
0.0
  9
$UCSYDIR
 10
0.0
 20
1.0
 30
0.0
  9
$PUCSNAME
  2

  9
$PUCSORG
 10
0.0
 20
0.0
 30
0.0
  9
$PUCSXDIR
 10
1.0
 20
0.0
 30
0.0
  9
$PUCSYDIR
 10
0.0
 20
1.0
 30
0.0
  9
$USERI1
 70
           0
  9
$USERI2
 70
           0
  9
$USERI3
 70
           0
  9
$USERI4
 70
           0
  9
$USERI5
 70
           0
  9
$USERR1
 40
0.0
  9
$USERR2
 40
0.0
  9
$USERR3
 40
0.0
  9
$USERR4
 40
0.0
  9
$USERR5
 40
0.0
  9
$WORLDVIEW
 70
           1
  9
$SHADEDGE
 70
           3
  9
$SHADEDIF
 70
          70
  9
$TILEMODE
 70
           1
  9
$MAXACTVP
 70
          16
  9
$PINSBASE
 10
0.0
 20
0.0
 30
0.0
  9
$PLIMCHECK
 70
           0
  9
$PEXTMIN
 10
1.000000000000E+20
 20
1.000000000000E+20
 30
1.000000000000E+20
  9
$PEXTMAX
 10
-1.000000000000E+20
 20
-1.000000000000E+20
 30
-1.000000000000E+20
  9
$PLIMMIN
 10
0.0
 20
0.0
  9
$PLIMMAX
 10
12.0
 20
9.0
  9
$UNITMODE
 70
           0
  9
$VISRETAIN
 70
           0
  9
$PLINEGEN
 70
           1
  9
$PSLTSCALE
 70
           0
  9
$TREEDEPTH
 70
        3020
  9
$PICKSTYLE
 70
           1
  9
$CMLSTYLE
  2
STANDARD
  9
$CMLJUST
 70
           0
  9
$CMLSCALE
 40
1.0
  9
$PROXYGRAPHICS
 70
           0
  9
$MEASUREMENT
 70
           0
  0
ENDSEC
  0
SECTION
  2
CLASSES
  0
CLASS
  1
LWPOLYLINE
  2
AcDbPolyline
  3
"AutoCAD"
 90
        0
280
           0
281
           1
  0
CLASS
  1
IMAGE
  2
AcDbRasterImage
  3
ISM
 90
      127
280
           0
281
           1
  0
CLASS
  1
OLE2FRAME
  2
AcDbOle2Frame
  3
""
 90
        0
280
           0
281
           1
  0
CLASS
  1
HATCH
  2
AcDbHatch
  3
"ACAD_SEDONA"
 90
        0
280
           0
281
           1
  0
CLASS
  1
DICTIONARYVAR
  2
AcDbDictionaryVar
  3
"AutoCAD"
 90
        0
280
           0
281
           0
  0
CLASS
  1
RASTERVARIABLES
  2
AcDbRasterVariables
  3
ISM
 90
        0
280
           0
281
           0
  0
CLASS
  1
IMAGEDEF
  2
AcDbRasterImageDef
  3
ISM
 90
        0
280
           0
281
           0
  0
CLASS
  1
IMAGEDEF_REACTOR
  2
AcDbRasterImageDefReactor
  3
ISM
 90
        1
280
           0
281
           0
  0
CLASS
  1
IDBUFFER
  2
AcDbIdBuffer
  3
"Acad"
 90
        0
280
           0
281
           0
  0
CLASS
  1
SPATIAL_FILTER
  2
AcDbSpatialFilter
  3
"Acad"
 90
        0
280
           0
281
           0
  0
CLASS
  1
XRECORD
  2
AcDbXrecord
  3
"<Built In>"
 90
        0
280
           0
281
           0
  0
CLASS
  1
SORTENTSTABLE
  2
AcDbSortentsTable
  3
"AutoCAD"
 90
        0
280
           0
281
           0
  0
CLASS
  1
LAYER_INDEX
  2
AcDbLayerIndex
  3
"Acad"
 90
        0
280
           0
281
           0
  0
CLASS
  1
SPATIAL_INDEX
  2
AcDbSpatialIndex
  3
"Acad"
 90
        0
280
           0
281
           0
  0
CLASS
  1
OBJECT_PTR
  2
CAseDLPNTableRecord
  3
"ASE-LPNTableRecord"
 90
        1
280
           0
281
           0
  0
CLASS
  1
LAYOUT
  2
AcDbLayout
  3
"AutoCAD 2000"
 90
        1
280
           0
281
           0
  0
CLASS
  1
PLOTSETTINGS
  2
AcDbPlotSettings
  3
"AutoCAD 2000"
 90
        1
280
           0
281
           0
  0
CLASS
  1
ACDBDICTIONARYWDFLT
  2
AcDbDictionaryWithDefault
  3
"AutoCAD 2000"
 90
        1
280
           0
281
           0
  0
CLASS
  1
ACDBPLACEHOLDER
  2
AcDbPlaceHolder
  3
"AutoCAD 2000"
 90
        1
280
           0
281
           0
  0
CLASS
  1
VBA_PROJECT
  2
AcDbVbaProject
  3
"acadvba"
 90
        1
280
           0
281
           0
  0
CLASS
  1
WIPEOUT
  2
AcDbWipeout
  3
WipeOut|AutoCAD Express Tool|expresstools@autodesk.com
 90
      127
280
           0
281
           1
  0
CLASS
  1
WIPEOUTVARIABLES
  2
AcDbWipeoutVariables
  3
WipeOut|AutoCAD Express Tool|expresstools@autodesk.com
 90
        0
280
           0
281
           0
  0
CLASS
  1
RTEXT
  2
RText
  3
RText|AutoCAD Express Tool|expresstools@autodesk.com
 90
        0
280
           0
281
           1
  0
CLASS
  1
ARCALIGNEDTEXT
  2
AcDbArcAlignedText
  3
ATEXT|AutoCAD Express Tool|expresstools@autodesk.com
 90
        0
280
           0
281
           1
  0
ENDSEC
  0
SECTION
  2
TABLES
  0
TABLE
  2
VPORT
  5
7
100
AcDbSymbolTable
 70
           1
  0
VPORT
  5
15
100
AcDbSymbolTableRecord
100
AcDbViewportTableRecord
  2
*ACTIVE
 70
           0
 10
0.0
 20
0.0
 11
1.0
 21
1.0
 12
6.591288
 22
4.579184
 13
0.0
 23
0.0
 14
1.0
 24
1.0
 15
0.0
 25
0.0
 16
0.0
 26
0.0
 36
1.0
 17
0.0
 27
0.0
 37
0.0
 40
9.158369
 41
0.688564
 42
50.0
 43
0.0
 44
0.0
 50
0.0
 51
0.0
 71
           0
 72
         100
 73
           1
 74
           1
 75
           0
 76
           0
 77
           0
 78
           0
  0
ENDTAB
  0
TABLE
  2
LTYPE
  5
4
100
AcDbSymbolTable
 70
          10
  0
LTYPE
  5
11
100
AcDbSymbolTableRecord
100
AcDbLinetypeTableRecord
  2
BYBLOCK
 70
          64
  3

 72
          65
 73
           0
 40
0.0
  0
LTYPE
  5
12
100
AcDbSymbolTableRecord
100
AcDbLinetypeTableRecord
  2
BYLAYER
 70
          64
  3

 72
          65
 73
           0
 40
0.0
  0
LTYPE
  5
13
100
AcDbSymbolTableRecord
100
AcDbLinetypeTableRecord
  2
CONTINUOUS
 70
          64
  3
Solid line
 72
          65
 73
           0
 40
0.0
  0
LTYPE
  5
1D
100
AcDbSymbolTableRecord
100
AcDbLinetypeTableRecord
  2
DASHED
 70
          64
  3
Dashed
 72
          65
 73
           2
 40
15.0
 49
12.0
 74
           0
 49
-3.0
 74
           0
  0
LTYPE
  5
1E
100
AcDbSymbolTableRecord
100
AcDbLinetypeTableRecord
  2
DOTTED
 70
          64
  3
Dotted
 72
          65
 73
           2
 40
3.5
 49
0.5
 74
           0
 49
-3.0
 74
           0
  0
LTYPE
  5
1F
100
AcDbSymbolTableRecord
100
AcDbLinetypeTableRecord
  2
DOT_CENTER
 70
          64
  3
Dot_Center
 72
          65
 73
           4
 40
2.0
 49
1.25
 74
           0
 49
-0.25
 74
           0
 49
0.25
 74
           0
 49
-0.25
 74
           0
  0
LTYPE
  5
20
100
AcDbSymbolTableRecord
100
AcDbLinetypeTableRecord
  2
LONG_DASHED
 70
          64
  3
Long_Dashed
 72
          65
 73
           2
 40
2.0
 49
1.5
 74
           0
 49
-0.5
 74
           0
  0
LTYPE
  5
21
100
AcDbSymbolTableRecord
100
AcDbLinetypeTableRecord
  2
DASH_CENTER
 70
          64
  3
Dash_Center
 72
          65
 73
           4
 40
36.0
 49
24.0
 74
           0
 49
-3.0
 74
           0
 49
6.0
 74
           0
 49
-3.0
 74
           0
  0
LTYPE
  5
22
100
AcDbSymbolTableRecord
100
AcDbLinetypeTableRecord
  2
PHANTOM
 70
          64
  3
Phantom
 72
          65
 73
           6
 40
2.5
 49
1.25
 74
           0
 49
-0.25
 74
           0
 49
0.25
 74
           0
 49
-0.25
 74
           0
 49
0.25
 74
           0
 49
-0.25
 74
           0
  0
LTYPE
  5
23
100
AcDbSymbolTableRecord
100
AcDbLinetypeTableRecord
  2
CENTER_DASH_DASH
 70
          64
  3
Center_Dash_Dash
 72
          65
 73
           6
 40
22.0
 49
12.0
 74
           0
 49
-3.0
 74
           0
 49
0.5
 74
           0
 49
-3.0
 74
           0
 49
0.5
 74
           0
 49
-3.0
 74
           0
  0
ENDTAB
  0
TABLE
  2
LAYER
  5
2
100
AcDbSymbolTable
 70
           4
  0
LAYER
  5
14
100
AcDbSymbolTableRecord
100
AcDbLayerTableRecord
  2
0
 70
           0
 62
           7
  6
CONTINUOUS
  0
LAYER
  5
24
100
AcDbSymbolTableRecord
100
AcDbLayerTableRecord
  2
MITTELLINIEN
 70
           0
 62
           7
  6
CONTINUOUS
  0
LAYER
  5
25
100
AcDbSymbolTableRecord
100
AcDbLayerTableRecord
  2
1
 70
           0
 62
           7
  6
CONTINUOUS
  0
LAYER
  5
26
100
AcDbSymbolTableRecord
100
AcDbLayerTableRecord
  2
WANNE
 70
           0
 62
           7
  6
CONTINUOUS
  0
ENDTAB
  0
TABLE
  2
STYLE
  5
3
100
AcDbSymbolTable
 70
           2
  0
STYLE
  5
17
100
AcDbSymbolTableRecord
100
AcDbTextStyleTableRecord
  2
STANDARD
 70
           0
 40
0.0
 41
1.0
 50
0.0
 71
           0
 42
0.0
  3
txt
  4

  0
STYLE
  5
100
100
AcDbSymbolTableRecord
100
AcDbTextStyleTableRecord
  2
CONVERTER_1
 70
           0
 40
0.0
 41
0.71262
 50
0.0
 71
           0
 42
0.0
  3
txt.shx
  4

  0
ENDTAB
  0
TABLE
  2
VIEW
  5
5
100
AcDbSymbolTable
 70
           0
  0
ENDTAB
  0
TABLE
  2
UCS
  5
6
100
AcDbSymbolTable
 70
           0
  0
ENDTAB
  0
TABLE
  2
APPID
  5
8
100
AcDbSymbolTable
 70
           1
  0
APPID
  5
16
100
AcDbSymbolTableRecord
100
AcDbRegAppTableRecord
  2
ACAD
 70
           0
  0
ENDTAB
  0
TABLE
  2
DIMSTYLE
  5
9
100
AcDbSymbolTable
 70
           1
  0
DIMSTYLE
105
18
100
AcDbSymbolTableRecord
100
AcDbDimStyleTableRecord
  2
STANDARD
 70
           0
  3

  4

  5

  6

  7

 40
1.0
 41
0.18
 42
0.0625
 43
0.38
 44
0.18
 45
0.0
 46
0.0
 47
0.0
 48
0.0
 71
           0
 72
           0
 73
           1
 74
           1
 75
           0
 76
           0
 77
           0
 78
           0
140
0.18
141
0.09
142
0.0
143
25.4
144
1.0
145
0.0
146
1.0
147
0.09
170
           0
171
           2
172
           0
173
           0
174
           0
175
           0
176
           0
177
           0
178
           0
270
           2
271
           4
272
           4
273
           2
274
           2
275
           0
280
           0
281
           0
282
           0
283
           1
284
           0
285
           0
286
           0
287
           0
288
           0
340
17
  0
ENDTAB
  0
TABLE
  2
BLOCK_RECORD
  5
1
100
AcDbSymbolTable
 70
           2
  0
BLOCK_RECORD
  5
A
100
AcDbSymbolTableRecord
100
AcDbBlockTableRecord
  2
*MODEL_SPACE
  0
BLOCK_RECORD
  5
B
100
AcDbSymbolTableRecord
100
AcDbBlockTableRecord
  2
*PAPER_SPACE
  0
BLOCK_RECORD
  5
27
100
AcDbSymbolTableRecord
100
AcDbBlockTableRecord
  2
DLX
  0
BLOCK_RECORD
  5
29
100
AcDbSymbolTableRecord
100
AcDbBlockTableRecord
  2
WANNE_SMART_LINE_30
  0
ENDTAB
  0
ENDSEC
  0
SECTION
  2
BLOCKS
  0
BLOCK
  5
D
100
AcDbEntity
  8
0
100
AcDbBlockBegin
  2
*MODEL_SPACE
 70
           0
 10
0.0
 20
0.0
 30
0.0
  3
*MODEL_SPACE
  1

  0
ENDBLK
  5
E
100
AcDbEntity
  8
0
100
AcDbBlockEnd
  0
BLOCK
  5
F
100
AcDbEntity
 67
           1
  8
0
100
AcDbBlockBegin
  2
*PAPER_SPACE
 70
           0
 10
0.0
 20
0.0
 30
0.0
  3
*PAPER_SPACE
  1

  0
ENDBLK
  5
10
100
AcDbEntity
 67
           1
  8
0
100
AcDbBlockEnd
  0
BLOCK
  5
28
100
AcDbEntity
  8
0
100
AcDbBlockBegin
  2
DLX
 70
           0
 10
0.0
 20
0.0
 30
0.0
  3
DLX
  1

  0
CIRCLE
  5
E2
100
AcDbEntity
  8
1
  6
CONTINUOUS
 62
           3
100
AcDbCircle
 10
812.685366184756
 20
850.702577924966
 40
5.972862778755
  0
CIRCLE
  5
E1
100
AcDbEntity
  8
1
  6
CONTINUOUS
 62
           3
100
AcDbCircle
 10
812.685366184756
 20
850.702577924966
 40
5.530127989697
  0
ARC
  5
E0
100
AcDbEntity
  8
1
  6
CONTINUOUS
 62
           3
100
AcDbCircle
 10
812.892185016135
 20
852.127709967593
 40
2.009798008862
100
AcDbArc
 50
-55.929988464572
 51
86.297888718258
  0
ARC
  5
DF
100
AcDbEntity
  8
1
  6
CONTINUOUS
 62
           3
100
AcDbCircle
 10
812.813867190121
 20
852.087815976763
 40
1.257687287768
100
AcDbArc
 50
-74.800419047062
 51
80.93139523879
  0
ARC
  5
DE
100
AcDbEntity
  8
1
  6
CONTINUOUS
 62
           3
100
AcDbCircle
 10
812.738684551925
 20
848.876829436033
 40
1.155889798232
100
AcDbArc
 50
0.985058170485
 51
82.918254632932
  0
ARC
  5
DD
100
AcDbEntity
  8
1
  6
CONTINUOUS
 62
           3
100
AcDbCircle
 10
813.464077738415
 20
849.186023728437
 40
1.391870091328
100
AcDbArc
 50
-1.298612665717
 51
66.544866494049
  0
LINE
  5
DC
100
AcDbEntity
  8
1
  6
CONTINUOUS
 62
           3
100
AcDbLine
 10
705.277714416137
 20
846.803685856993
 11
704.982311328756
 21
847.802237918574
  0
LINE
  5
DB
100
AcDbEntity
  8
1
  6
CONTINUOUS
 62
           3
100
AcDbLine
 10
705.714394097703
 20
848.585994904543
 11
704.982311328756
 21
847.802237918574
  0
LINE
  5
DA
100
AcDbEntity
  8
1
  6
CONTINUOUS
 62
           3
100
AcDbLine
 10
740.745418066373
 20
818.061498830739
 11
744.129825557254
 21
831.87496519129
  0
LINE
  5
D9
100
AcDbEntity
  8
1
  6
CONTINUOUS
 62
           3
100
AcDbLine
 10
736.557263911134
 20
818.061498830739
 11
739.94167140215
 21
831.87496519129
  0
LINE
  5
D8
100
AcDbEntity
  8
1
  6
CONTINUOUS
 62
           3
100
AcDbLine
 10
736.557263911134
 20
818.061498830739
 11
740.745418066373
 21
818.061498830739
  0
LINE
  5
D7
100
AcDbEntity
  8
1
  6
CONTINUOUS
 62
           3
100
AcDbLine
 10
735.473289851965
 20
813.637256406552
 11
739.661444007153
 21
813.637256406552
  0
LINE
  5
D6
100
AcDbEntity
  8
1
  6
CONTINUOUS
 62
           3
100
AcDbLine
 10
736.277036516258
 20
799.823790046212
 11
742.559267749155
 21
799.823790046212
  0
LINE
  5
D5
100
AcDbEntity
  8
1
  6
CONTINUOUS
 62
           3
100
AcDbLine
 10
739.94167140215
 20
831.87496519129
 11
733.659440169285
 21
831.87496519129
  0
LINE
  5
D4
100
AcDbEntity
  8
1
  6
CONTINUOUS
 62
           3
100
AcDbLine
 10
771.352827566108
 20
831.87496519129
 11
763.500038525089
 21
799.823790046212
  0
LINE
  5
D3
100
AcDbEntity
  8
1
  6
CONTINUOUS
 62
           3
100
AcDbLine
 10
763.986622274111
 20
827.45072276705
 11
758.301781351387
 21
804.248032470394
  0
LINE
  5
D2
100
AcDbEntity
  8
1
  6
CONTINUOUS
 62
           3
100
AcDbLine
 10
759.798468118861
 20
827.45072276705
 11
763.986622274111
 21
827.45072276705
  0
LINE
  5
D1
100
AcDbEntity
  8
1
  6
CONTINUOUS
 62
           3
100
AcDbLine
 10
771.352827566108
 20
831.87496519129
 11
754.600210945278
 21
831.87496519129
  0
LINE
  5
D0
100
AcDbEntity
  8
1
  6
CONTINUOUS
 62
           3
100
AcDbLine
 10
754.113627196286
 20
804.248032470394
 11
759.798468118861
 21
827.45072276705
  0
LINE
  5
CF
100
AcDbEntity
  8
1
  6
CONTINUOUS
 62
           3
100
AcDbLine
 10
754.600210945278
 20
831.87496519129
 11
746.747421904281
 21
799.823790046212
  0
LINE
  5
CE
100
AcDbEntity
  8
1
  6
CONTINUOUS
 62
           3
100
AcDbLine
 10
758.301781351387
 20
804.248032470394
 11
754.113627196286
 21
804.248032470394
  0
LINE
  5
CD
100
AcDbEntity
  8
1
  6
CONTINUOUS
 62
           3
100
AcDbLine
 10
746.747421904281
 20
799.823790046212
 11
763.500038525089
 21
799.823790046212
  0
LINE
  5
CC
100
AcDbEntity
  8
1
  6
CONTINUOUS
 62
           3
100
AcDbLine
 10
750.41205679017
 20
831.87496519129
 11
744.129825557254
 21
831.87496519129
  0
LINE
  5
CB
100
AcDbEntity
  8
1
  6
CONTINUOUS
 62
           3
100
AcDbLine
 10
733.659440169285
 20
831.87496519129
 11
725.806651128292
 21
799.823790046212
  0
LINE
  5
CA
100
AcDbEntity
  8
1
  6
CONTINUOUS
 62
           3
100
AcDbLine
 10
732.08888236108
 20
799.823790046212
 11
735.473289851965
 21
813.637256406552
  0
LINE
  5
C9
100
AcDbEntity
  8
1
  6
CONTINUOUS
 62
           3
100
AcDbLine
 10
736.277036516258
 20
799.823790046212
 11
739.661444007153
 21
813.637256406552
  0
LINE
  5
C8
100
AcDbEntity
  8
1
  6
CONTINUOUS
 62
           3
100
AcDbLine
 10
742.559267749155
 20
799.823790046212
 11
750.41205679017
 21
831.87496519129
  0
LINE
  5
C7
100
AcDbEntity
  8
1
  6
CONTINUOUS
 62
           3
100
AcDbLine
 10
725.806651128292
 20
799.823790046212
 11
732.08888236108
 21
799.823790046212
  0
LINE
  5
C6
100
AcDbEntity
  8
1
  6
CONTINUOUS
 62
           3
100
AcDbLine
 10
720.479119633335
 20
820.814359130624
 11
726.761350866141
 21
820.814359130624
  0
LINE
  5
C5
100
AcDbEntity
  8
1
  6
CONTINUOUS
 62
           3
100
AcDbLine
 10
722.105080722129
 20
827.45072276705
 11
720.479119633335
 21
820.814359130624
  0
LINE
  5
C4
100
AcDbEntity
  8
1
  6
CONTINUOUS
 62
           3
100
AcDbLine
 10
717.916926566937
 20
827.45072276705
 11
722.105080722129
 21
827.45072276705
  0
LINE
  5
C3
100
AcDbEntity
  8
1
  6
CONTINUOUS
 62
           3
100
AcDbLine
 10
712.232085644307
 20
804.248032470394
 11
717.916926566937
 21
827.45072276705
  0
LINE
  5
C2
100
AcDbEntity
  8
1
  6
CONTINUOUS
 62
           3
100
AcDbLine
 10
716.42023979951
 20
804.248032470394
 11
712.232085644307
 21
804.248032470394
  0
LINE
  5
C1
100
AcDbEntity
  8
1
  6
CONTINUOUS
 62
           3
100
AcDbLine
 10
718.046200888297
 20
810.88439610682
 11
716.42023979951
 21
804.248032470394
  0
LINE
  5
C0
100
AcDbEntity
  8
1
  6
CONTINUOUS
 62
           3
100
AcDbLine
 10
724.328432121085
 20
810.88439610682
 11
718.046200888297
 21
810.88439610682
  0
LINE
  5
BF
100
AcDbEntity
  8
1
  6
CONTINUOUS
 62
           3
100
AcDbLine
 10
721.618496973111
 20
799.823790046212
 11
724.328432121085
 21
810.88439610682
  0
LINE
  5
BE
100
AcDbEntity
  8
1
  6
CONTINUOUS
 62
           3
100
AcDbLine
 10
704.865880352357
 20
799.823790046212
 11
721.618496973111
 21
799.823790046212
  0
LINE
  5
BD
100
AcDbEntity
  8
1
  6
CONTINUOUS
 62
           3
100
AcDbLine
 10
712.71866939335
 20
831.87496519129
 11
704.865880352357
 21
799.823790046212
  0
LINE
  5
BC
100
AcDbEntity
  8
1
  6
CONTINUOUS
 62
           3
100
AcDbLine
 10
729.471286014071
 20
831.87496519129
 11
712.71866939335
 21
831.87496519129
  0
LINE
  5
BB
100
AcDbEntity
  8
1
  6
CONTINUOUS
 62
           3
100
AcDbLine
 10
726.761350866141
 20
820.814359130624
 11
729.471286014071
 21
831.87496519129
  0
LINE
  5
BA
100
AcDbEntity
  8
1
  6
CONTINUOUS
 62
           3
100
AcDbLine
 10
707.446541178975
 20
827.45072276705
 11
708.530515238133
 21
831.87496519129
  0
LINE
  5
B9
100
AcDbEntity
  8
1
  6
CONTINUOUS
 62
           3
100
AcDbLine
 10
696.976155790995
 20
827.45072276705
 11
707.446541178975
 21
827.45072276705
  0
LINE
  5
B8
100
AcDbEntity
  8
1
  6
CONTINUOUS
 62
           3
100
AcDbLine
 10
694.543237045982
 20
817.520759743164
 11
696.976155790995
 21
827.45072276705
  0
LINE
  5
B7
100
AcDbEntity
  8
1
  6
CONTINUOUS
 62
           3
100
AcDbLine
 10
705.013622434045
 20
817.520759743164
 11
694.543237045982
 21
817.520759743164
  0
LINE
  5
B6
100
AcDbEntity
  8
1
  6
CONTINUOUS
 62
           3
100
AcDbLine
 10
700.677726197122
 20
799.823790046212
 11
705.013622434045
 21
817.520759743164
  0
LINE
  5
B5
100
AcDbEntity
  8
1
  6
CONTINUOUS
 62
           3
100
AcDbLine
 10
683.925109576299
 20
799.823790046212
 11
700.677726197122
 21
799.823790046212
  0
LINE
  5
B4
100
AcDbEntity
  8
1
  6
CONTINUOUS
 62
           3
100
AcDbLine
 10
685.009083635606
 20
804.248032470394
 11
683.925109576299
 21
799.823790046212
  0
LINE
  5
B3
100
AcDbEntity
  8
1
  6
CONTINUOUS
 62
           3
100
AcDbLine
 10
695.479469023517
 20
804.248032470394
 11
685.009083635606
 21
804.248032470394
  0
LINE
  5
B2
100
AcDbEntity
  8
1
  6
CONTINUOUS
 62
           3
100
AcDbLine
 10
697.647417141935
 20
813.096517319009
 11
695.479469023517
 21
804.248032470394
  0
LINE
  5
B1
100
AcDbEntity
  8
1
  6
CONTINUOUS
 62
           3
100
AcDbLine
 10
687.17703175397
 20
813.096517319009
 11
697.647417141935
 21
813.096517319009
  0
LINE
  5
B0
100
AcDbEntity
  8
1
  6
CONTINUOUS
 62
           3
100
AcDbLine
 10
691.777898617361
 20
831.87496519129
 11
687.17703175397
 21
813.096517319009
  0
LINE
  5
AF
100
AcDbEntity
  8
1
  6
CONTINUOUS
 62
           3
100
AcDbLine
 10
708.530515238133
 20
831.87496519129
 11
691.777898617361
 21
831.87496519129
  0
LINE
  5
AE
100
AcDbEntity
  8
1
  6
CONTINUOUS
 62
           3
100
AcDbLine
 10
687.589744462198
 20
831.87496519129
 11
679.736955421183
 21
799.823790046212
  0
LINE
  5
AD
100
AcDbEntity
  8
1
  6
CONTINUOUS
 62
           3
100
AcDbLine
 10
681.307513229392
 20
831.87496519129
 11
687.589744462198
 21
831.87496519129
  0
LINE
  5
AC
100
AcDbEntity
  8
1
  6
CONTINUOUS
 62
           3
100
AcDbLine
 10
679.736955421183
 20
799.823790046212
 11
661.937300261593
 21
799.823790046212
  0
LINE
  5
AB
100
AcDbEntity
  8
1
  6
CONTINUOUS
 62
           3
100
AcDbLine
 10
674.538698247586
 20
804.248032470394
 11
681.307513229392
 21
831.87496519129
  0
LINE
  5
AA
100
AcDbEntity
  8
1
  6
CONTINUOUS
 62
           3
100
AcDbLine
 10
669.303505553602
 20
804.248032470394
 11
674.538698247586
 21
804.248032470394
  0
LINE
  5
A9
100
AcDbEntity
  8
1
  6
CONTINUOUS
 62
           3
100
AcDbLine
 10
676.072320535397
 20
831.87496519129
 11
669.303505553602
 21
804.248032470394
  0
LINE
  5
A8
100
AcDbEntity
  8
1
  6
CONTINUOUS
 62
           3
100
AcDbLine
 10
669.790089302587
 20
831.87496519129
 11
676.072320535397
 21
831.87496519129
  0
LINE
  5
A7
100
AcDbEntity
  8
1
  6
CONTINUOUS
 62
           3
100
AcDbLine
 10
661.937300261593
 20
799.823790046212
 11
669.790089302587
 21
831.87496519129
  0
LINE
  5
A6
100
AcDbEntity
  8
1
  6
CONTINUOUS
 62
           3
100
AcDbLine
 10
657.749146106467
 20
799.823790046212
 11
639.949490946819
 21
799.823790046212
  0
LINE
  5
A5
100
AcDbEntity
  8
1
  6
CONTINUOUS
 62
           3
100
AcDbLine
 10
668.311870295386
 20
842.935571251874
 11
657.749146106467
 21
799.823790046212
  0
LINE
  5
A4
100
AcDbEntity
  8
1
  6
CONTINUOUS
 62
           3
100
AcDbLine
 10
644.338543218094
 20
842.935571251874
 11
668.311870295386
 21
842.935571251874
  0
LINE
  5
A3
100
AcDbEntity
  8
1
  6
CONTINUOUS
 62
           3
100
AcDbLine
 10
642.983575644109
 20
837.405268221616
 11
644.338543218094
 21
842.935571251874
  0
LINE
  5
A2
100
AcDbEntity
  8
1
  6
CONTINUOUS
 62
           3
100
AcDbLine
 10
660.674671488643
 20
837.405268221616
 11
642.983575644109
 21
837.405268221616
  0
LINE
  5
A1
100
AcDbEntity
  8
1
  6
CONTINUOUS
 62
           3
100
AcDbLine
 10
652.550888932761
 20
804.248032470394
 11
660.674671488643
 21
837.405268221616
  0
LINE
  5
A0
100
AcDbEntity
  8
1
  6
CONTINUOUS
 62
           3
100
AcDbLine
 10
647.315696238882
 20
804.248032470394
 11
652.550888932761
 21
804.248032470394
  0
LINE
  5
9F
100
AcDbEntity
  8
1
  6
CONTINUOUS
 62
           3
100
AcDbLine
 10
654.084511220571
 20
831.87496519129
 11
647.315696238882
 21
804.248032470394
  0
LINE
  5
9E
100
AcDbEntity
  8
1
  6
CONTINUOUS
 62
           3
100
AcDbLine
 10
647.802279987874
 20
831.87496519129
 11
654.084511220571
 21
831.87496519129
  0
LINE
  5
9D
100
AcDbEntity
  8
1
  6
CONTINUOUS
 62
           3
100
AcDbLine
 10
639.949490946819
 20
799.823790046212
 11
647.802279987874
 21
831.87496519129
  0
LINE
  5
9C
100
AcDbEntity
  8
1
  6
CONTINUOUS
 62
           3
100
AcDbLine
 10
775.069172180334
 20
806.017729440121
 11
784.114332686425
 21
842.935571251874
  0
LINE
  5
9B
100
AcDbEntity
  8
1
  6
CONTINUOUS
 62
           3
100
AcDbLine
 10
784.114332686425
 20
842.935571251874
 11
778.250916869157
 21
842.935571251874
  0
LINE
  5
9A
100
AcDbEntity
  8
1
  6
CONTINUOUS
 62
           3
100
AcDbLine
 10
778.250916869157
 20
842.935571251874
 11
767.688192680216
 21
799.823790046212
  0
LINE
  5
99
100
AcDbEntity
  8
1
  6
CONTINUOUS
 62
           3
100
AcDbLine
 10
785.592551693786
 20
831.87496519129
 11
779.907710771098
 21
808.672274894689
  0
LINE
  5
98
100
AcDbEntity
  8
1
  6
CONTINUOUS
 62
           3
100
AcDbLine
 10
779.907710771098
 20
808.672274894689
 11
795.613288853019
 21
808.672274894689
  0
LINE
  5
97
100
AcDbEntity
  8
1
  6
CONTINUOUS
 62
           3
100
AcDbLine
 10
795.613288853019
 20
808.672274894689
 11
801.298129775627
 21
831.87496519129
  0
LINE
  5
96
100
AcDbEntity
  8
1
  6
CONTINUOUS
 62
           3
100
AcDbLine
 10
801.298129775627
 20
831.87496519129
 11
796.062937081704
 21
831.87496519129
  0
LINE
  5
95
100
AcDbEntity
  8
1
  6
CONTINUOUS
 62
           3
100
AcDbLine
 10
796.062937081704
 20
831.87496519129
 11
791.462070218309
 21
813.096517319009
  0
LINE
  5
94
100
AcDbEntity
  8
1
  6
CONTINUOUS
 62
           3
100
AcDbLine
 10
791.462070218309
 20
813.096517319009
 11
786.226877524357
 21
813.096517319009
  0
LINE
  5
93
100
AcDbEntity
  8
1
  6
CONTINUOUS
 62
           3
100
AcDbLine
 10
786.226877524357
 20
813.096517319009
 11
790.827744387708
 21
831.87496519129
  0
LINE
  5
92
100
AcDbEntity
  8
1
  6
CONTINUOUS
 62
           3
100
AcDbLine
 10
790.827744387708
 20
831.87496519129
 11
785.592551693786
 21
831.87496519129
  0
LINE
  5
91
100
AcDbEntity
  8
1
  6
CONTINUOUS
 62
           3
100
AcDbLine
 10
807.856468531768
 20
831.87496519129
 11
803.811022268753
 21
831.87496519129
  0
LINE
  5
90
100
AcDbEntity
  8
1
  6
CONTINUOUS
 62
           3
100
AcDbLine
 10
803.811022268753
 20
831.87496519129
 11
807.93331779095
 21
821.239091264873
  0
LINE
  5
8F
100
AcDbEntity
  8
1
  6
CONTINUOUS
 62
           3
100
AcDbLine
 10
807.93331779095
 20
821.239091264873
 11
798.12618134616
 21
808.672274894689
  0
LINE
  5
8E
100
AcDbEntity
  8
1
  6
CONTINUOUS
 62
           3
100
AcDbLine
 10
798.12618134616
 20
808.672274894689
 11
802.171627609157
 21
808.672274894689
  0
LINE
  5
8D
100
AcDbEntity
  8
1
  6
CONTINUOUS
 62
           3
100
AcDbLine
 10
802.171627609157
 20
808.672274894689
 11
809.275760189259
 21
817.775475416714
  0
LINE
  5
8C
100
AcDbEntity
  8
1
  6
CONTINUOUS
 62
           3
100
AcDbLine
 10
809.275760189259
 20
817.775475416714
 11
812.804015883943
 21
808.672274894689
  0
LINE
  5
8B
100
AcDbEntity
  8
1
  6
CONTINUOUS
 62
           3
100
AcDbLine
 10
812.804015883943
 20
808.672274894689
 11
816.849462146991
 21
808.672274894689
  0
LINE
  5
8A
100
AcDbEntity
  8
1
  6
CONTINUOUS
 62
           3
100
AcDbLine
 10
816.849462146991
 20
808.672274894689
 11
811.978764053987
 21
821.239091264814
  0
LINE
  5
89
100
AcDbEntity
  8
1
  6
CONTINUOUS
 62
           3
100
AcDbLine
 10
811.978764053987
 20
821.239091264814
 11
820.278994099069
 21
831.87496519129
  0
LINE
  5
88
100
AcDbEntity
  8
1
  6
CONTINUOUS
 62
           3
100
AcDbLine
 10
820.278994099069
 20
831.87496519129
 11
816.233547836011
 21
831.87496519129
  0
LINE
  5
87
100
AcDbEntity
  8
1
  6
CONTINUOUS
 62
           3
100
AcDbLine
 10
816.233547836011
 20
831.87496519129
 11
810.636321655725
 21
824.702707113035
  0
LINE
  5
86
100
AcDbEntity
  8
1
  6
CONTINUOUS
 62
           3
100
AcDbLine
 10
810.636321655725
 20
824.702707113035
 11
807.856468531768
 21
831.87496519129
  0
LINE
  5
85
100
AcDbEntity
  8
1
  6
CONTINUOUS
 62
           3
100
AcDbLine
 10
817.878321732507
 20
806.017729440121
 11
820.278994099026
 21
799.823790046212
  0
LINE
  5
84
100
AcDbEntity
  8
1
  6
CONTINUOUS
 62
           3
100
AcDbLine
 10
817.878321732507
 20
806.017729440121
 11
775.069172180334
 21
806.017729440121
  0
LINE
  5
83
100
AcDbEntity
  8
1
  6
CONTINUOUS
 62
           3
100
AcDbLine
 10
820.278994099026
 20
799.823790046212
 11
767.688192680216
 21
799.823790046212
  0
LINE
  5
82
100
AcDbEntity
  8
1
  6
CONTINUOUS
 62
           3
100
AcDbLine
 10
676.688178605785
 20
842.935571251874
 11
679.940100783267
 21
856.208298524532
  0
LINE
  5
81
100
AcDbEntity
  8
1
  6
CONTINUOUS
 62
           3
100
AcDbLine
 10
679.940100783267
 20
856.208298524532
 11
692.504563248985
 21
856.208298524532
  0
LINE
  5
80
100
AcDbEntity
  8
1
  6
CONTINUOUS
 62
           3
100
AcDbLine
 10
692.504563248985
 20
856.208298524532
 11
689.25264107131
 21
842.935571251874
  0
LINE
  5
7F
100
AcDbEntity
  8
1
  6
CONTINUOUS
 62
           3
100
AcDbLine
 10
689.25264107131
 20
842.935571251874
 11
676.688178605785
 21
842.935571251874
  0
LINE
  5
7E
100
AcDbEntity
  8
1
  6
CONTINUOUS
 62
           3
100
AcDbLine
 10
687.700551023306
 20
845.147692464005
 11
679.324242712951
 21
845.147692464005
  0
LINE
  5
7D
100
AcDbEntity
  8
1
  6
CONTINUOUS
 62
           3
100
AcDbLine
 10
689.868499141783
 20
853.996177312481
 11
687.700551023306
 21
845.147692464005
  0
LINE
  5
7C
100
AcDbEntity
  8
1
  6
CONTINUOUS
 62
           3
100
AcDbLine
 10
681.492190831293
 20
853.996177312481
 11
689.868499141783
 21
853.996177312481
  0
LINE
  5
7B
100
AcDbEntity
  8
1
  6
CONTINUOUS
 62
           3
100
AcDbLine
 10
679.324242712951
 20
845.147692464005
 11
681.492190831293
 21
853.996177312481
  0
LINE
  5
7A
100
AcDbEntity
  8
1
  6
CONTINUOUS
 62
           3
100
AcDbLine
 10
695.017455741977
 20
856.208298524532
 11
691.765533564441
 21
842.935571251874
  0
LINE
  5
79
100
AcDbEntity
  8
1
  6
CONTINUOUS
 62
           3
100
AcDbLine
 10
695.017455741977
 20
856.208298524532
 11
707.581918207557
 21
856.208298524532
  0
LINE
  5
78
100
AcDbEntity
  8
1
  6
CONTINUOUS
 62
           3
100
AcDbLine
 10
707.581918207557
 20
856.208298524532
 11
705.714394097703
 21
848.585994904543
  0
LINE
  5
77
100
AcDbEntity
  8
1
  6
CONTINUOUS
 62
           3
100
AcDbLine
 10
704.329996030024
 20
842.935571251874
 11
702.235918952385
 21
842.935571251874
  0
LINE
  5
76
100
AcDbEntity
  8
1
  6
CONTINUOUS
 62
           3
100
AcDbLine
 10
702.235918952385
 20
842.935571251874
 11
703.319893011757
 21
847.359813676056
  0
LINE
  5
75
100
AcDbEntity
  8
1
  6
CONTINUOUS
 62
           3
100
AcDbLine
 10
703.319893011757
 20
847.359813676056
 11
694.943584701228
 21
847.359813676056
  0
LINE
  5
74
100
AcDbEntity
  8
1
  6
CONTINUOUS
 62
           3
100
AcDbLine
 10
695.48557173082
 20
849.571934888245
 11
703.8618800412
 21
849.571934888245
  0
LINE
  5
73
100
AcDbEntity
  8
1
  6
CONTINUOUS
 62
           3
100
AcDbLine
 10
703.8618800412
 20
849.571934888245
 11
704.945854100522
 21
853.996177312481
  0
LINE
  5
72
100
AcDbEntity
  8
1
  6
CONTINUOUS
 62
           3
100
AcDbLine
 10
704.945854100522
 20
853.996177312481
 11
696.569545790003
 21
853.996177312481
  0
LINE
  5
71
100
AcDbEntity
  8
1
  6
CONTINUOUS
 62
           3
100
AcDbLine
 10
696.569545790003
 20
853.996177312481
 11
695.48557173082
 21
849.571934888245
  0
LINE
  5
70
100
AcDbEntity
  8
1
  6
CONTINUOUS
 62
           3
100
AcDbLine
 10
705.277714416137
 20
846.803685856993
 11
704.329996030024
 21
842.935571251874
  0
LINE
  5
6F
100
AcDbEntity
  8
1
  6
CONTINUOUS
 62
           3
100
AcDbLine
 10
691.765533564441
 20
842.935571251874
 11
693.859610642117
 21
842.935571251874
  0
LINE
  5
6E
100
AcDbEntity
  8
1
  6
CONTINUOUS
 62
           3
100
AcDbLine
 10
693.859610642117
 20
842.935571251874
 11
694.943584701228
 21
847.359813676056
  0
LINE
  5
6D
100
AcDbEntity
  8
1
  6
CONTINUOUS
 62
           3
100
AcDbLine
 10
712.188887778284
 20
856.208298524532
 11
710.09481070072
 21
856.208298524532
  0
LINE
  5
6C
100
AcDbEntity
  8
1
  6
CONTINUOUS
 62
           3
100
AcDbLine
 10
710.09481070072
 20
856.208298524532
 11
706.842888523155
 21
842.935571251874
  0
LINE
  5
6B
100
AcDbEntity
  8
1
  6
CONTINUOUS
 62
           3
100
AcDbLine
 10
706.842888523155
 20
842.935571251874
 11
708.936965600874
 21
842.935571251874
  0
LINE
  5
6A
100
AcDbEntity
  8
1
  6
CONTINUOUS
 62
           3
100
AcDbLine
 10
708.936965600874
 20
842.935571251874
 11
712.188887778284
 21
856.208298524532
  0
LINE
  5
69
100
AcDbEntity
  8
1
  6
CONTINUOUS
 62
           3
100
AcDbLine
 10
711.449858093859
 20
842.935571251874
 11
714.701780271403
 21
856.208298524532
  0
LINE
  5
68
100
AcDbEntity
  8
1
  6
CONTINUOUS
 62
           3
100
AcDbLine
 10
714.701780271403
 20
856.208298524532
 11
727.266242736994
 21
856.208298524532
  0
LINE
  5
67
100
AcDbEntity
  8
1
  6
CONTINUOUS
 62
           3
100
AcDbLine
 10
727.266242736994
 20
856.208298524532
 11
726.128069974867
 21
851.562843979103
  0
LINE
  5
66
100
AcDbEntity
  8
1
  6
CONTINUOUS
 62
           3
100
AcDbLine
 10
724.014320559472
 20
842.935571251874
 11
711.449858093859
 21
842.935571251874
  0
LINE
  5
65
100
AcDbEntity
  8
1
  6
CONTINUOUS
 62
           3
100
AcDbLine
 10
722.462230511424
 20
845.147692464005
 11
714.085922201094
 21
845.147692464005
  0
LINE
  5
64
100
AcDbEntity
  8
1
  6
CONTINUOUS
 62
           3
100
AcDbLine
 10
724.630178629719
 20
853.996177312481
 11
724.033992897341
 21
851.562843979103
  0
LINE
  5
63
100
AcDbEntity
  8
1
  6
CONTINUOUS
 62
           3
100
AcDbLine
 10
716.253870319422
 20
853.996177312481
 11
724.630178629719
 21
853.996177312481
  0
LINE
  5
62
100
AcDbEntity
  8
1
  6
CONTINUOUS
 62
           3
100
AcDbLine
 10
714.085922201094
 20
845.147692464005
 11
716.253870319422
 21
853.996177312481
  0
LINE
  5
61
100
AcDbEntity
  8
1
  6
CONTINUOUS
 62
           3
100
AcDbLine
 10
725.640281648244
 20
849.571934888245
 11
719.358050415438
 21
849.571934888245
  0
LINE
  5
60
100
AcDbEntity
  8
1
  6
CONTINUOUS
 62
           3
100
AcDbLine
 10
725.640281648244
 20
849.571934888245
 11
724.014320559472
 21
842.935571251874
  0
LINE
  5
5F
100
AcDbEntity
  8
1
  6
CONTINUOUS
 62
           3
100
AcDbLine
 10
719.358050415438
 20
849.571934888245
 11
718.816063385791
 21
847.359813676056
  0
LINE
  5
5E
100
AcDbEntity
  8
1
  6
CONTINUOUS
 62
           3
100
AcDbLine
 10
718.816063385791
 20
847.359813676056
 11
723.004217541191
 21
847.359813676056
  0
LINE
  5
5D
100
AcDbEntity
  8
1
  6
CONTINUOUS
 62
           3
100
AcDbLine
 10
723.004217541191
 20
847.359813676056
 11
722.462230511424
 21
845.147692464005
  0
LINE
  5
5C
100
AcDbEntity
  8
1
  6
CONTINUOUS
 62
           3
100
AcDbLine
 10
724.033992897341
 20
851.562843979103
 11
726.128069974867
 21
851.562843979103
  0
LINE
  5
5B
100
AcDbEntity
  8
1
  6
CONTINUOUS
 62
           3
100
AcDbLine
 10
726.527213052588
 20
842.935571251874
 11
728.621290130148
 21
842.935571251874
  0
LINE
  5
5A
100
AcDbEntity
  8
1
  6
CONTINUOUS
 62
           3
100
AcDbLine
 10
728.621290130148
 20
842.935571251874
 11
731.873212307717
 21
856.208298524532
  0
LINE
  5
59
100
AcDbEntity
  8
1
  6
CONTINUOUS
 62
           3
100
AcDbLine
 10
729.779135230153
 20
856.208298524532
 11
726.527213052588
 21
842.935571251874
  0
LINE
  5
58
100
AcDbEntity
  8
1
  6
CONTINUOUS
 62
           3
100
AcDbLine
 10
731.873212307717
 20
856.208298524532
 11
729.779135230153
 21
856.208298524532
  0
LINE
  5
57
100
AcDbEntity
  8
1
  6
CONTINUOUS
 62
           3
100
AcDbLine
 10
731.134182623318
 20
842.935571251874
 11
734.386104800833
 21
856.208298524532
  0
LINE
  5
56
100
AcDbEntity
  8
1
  6
CONTINUOUS
 62
           3
100
AcDbLine
 10
734.386104800833
 20
856.208298524532
 11
737.527220417174
 21
856.208298524532
  0
LINE
  5
55
100
AcDbEntity
  8
1
  6
CONTINUOUS
 62
           3
100
AcDbLine
 10
737.527220417174
 20
856.208298524532
 11
742.011058283449
 21
844.594662160957
  0
LINE
  5
54
100
AcDbEntity
  8
1
  6
CONTINUOUS
 62
           3
100
AcDbLine
 10
742.011058283449
 20
844.594662160957
 11
744.856490188802
 21
856.208298524532
  0
LINE
  5
53
100
AcDbEntity
  8
1
  6
CONTINUOUS
 62
           3
100
AcDbLine
 10
744.856490188802
 20
856.208298524532
 11
746.950567266416
 21
856.208298524532
  0
LINE
  5
52
100
AcDbEntity
  8
1
  6
CONTINUOUS
 62
           3
100
AcDbLine
 10
746.950567266416
 20
856.208298524532
 11
743.698645088796
 21
842.935571251874
  0
LINE
  5
51
100
AcDbEntity
  8
1
  6
CONTINUOUS
 62
           3
100
AcDbLine
 10
743.698645088796
 20
842.935571251874
 11
740.455966600027
 21
842.935571251874
  0
LINE
  5
50
100
AcDbEntity
  8
1
  6
CONTINUOUS
 62
           3
100
AcDbLine
 10
740.455966600027
 20
842.935571251874
 11
736.674810264317
 21
852.729184675746
  0
LINE
  5
4F
100
AcDbEntity
  8
1
  6
CONTINUOUS
 62
           3
100
AcDbLine
 10
736.674810264317
 20
852.729184675746
 11
736.034261997807
 21
854.388275584809
  0
LINE
  5
4E
100
AcDbEntity
  8
1
  6
CONTINUOUS
 62
           3
100
AcDbLine
 10
736.034261997807
 20
854.388275584809
 11
733.228259700878
 21
842.935571251874
  0
LINE
  5
4D
100
AcDbEntity
  8
1
  6
CONTINUOUS
 62
           3
100
AcDbLine
 10
733.228259700878
 20
842.935571251874
 11
731.134182623318
 21
842.935571251874
  0
LINE
  5
4C
100
AcDbEntity
  8
1
  6
CONTINUOUS
 62
           3
100
AcDbLine
 10
746.211537581912
 20
842.935571251874
 11
753.722967860809
 21
856.208298524532
  0
LINE
  5
4B
100
AcDbEntity
  8
1
  6
CONTINUOUS
 62
           3
100
AcDbLine
 10
753.722967860809
 20
856.208298524532
 11
757.768414123784
 21
856.208298524532
  0
LINE
  5
4A
100
AcDbEntity
  8
1
  6
CONTINUOUS
 62
           3
100
AcDbLine
 10
757.768414123784
 20
856.208298524532
 11
758.776000047546
 21
842.935571251874
  0
LINE
  5
49
100
AcDbEntity
  8
1
  6
CONTINUOUS
 62
           3
100
AcDbLine
 10
758.776000047546
 20
842.935571251874
 11
756.746317884477
 21
842.935571251874
  0
LINE
  5
48
100
AcDbEntity
  8
1
  6
CONTINUOUS
 62
           3
100
AcDbLine
 10
756.746317884477
 20
842.935571251874
 11
756.57838689721
 21
845.147692464005
  0
LINE
  5
47
100
AcDbEntity
  8
1
  6
CONTINUOUS
 62
           3
100
AcDbLine
 10
756.57838689721
 20
845.147692464005
 11
749.842239616846
 21
845.147692464005
  0
LINE
  5
46
100
AcDbEntity
  8
1
  6
CONTINUOUS
 62
           3
100
AcDbLine
 10
749.842239616846
 20
845.147692464005
 11
748.590334570483
 21
842.935571251874
  0
LINE
  5
45
100
AcDbEntity
  8
1
  6
CONTINUOUS
 62
           3
100
AcDbLine
 10
748.590334570483
 20
842.935571251874
 11
746.211537581912
 21
842.935571251874
  0
LINE
  5
44
100
AcDbEntity
  8
1
  6
CONTINUOUS
 62
           3
100
AcDbLine
 10
751.094144663377
 20
847.359813676056
 11
756.410455909888
 21
847.359813676056
  0
LINE
  5
43
100
AcDbEntity
  8
1
  6
CONTINUOUS
 62
           3
100
AcDbLine
 10
756.410455909888
 20
847.359813676056
 11
755.906662948033
 21
853.996177312481
  0
LINE
  5
42
100
AcDbEntity
  8
1
  6
CONTINUOUS
 62
           3
100
AcDbLine
 10
755.906662948033
 20
853.996177312481
 11
754.849859802743
 21
853.996177312481
  0
LINE
  5
41
100
AcDbEntity
  8
1
  6
CONTINUOUS
 62
           3
100
AcDbLine
 10
751.094144663377
 20
847.359813676056
 11
754.849859802743
 21
853.996177312481
  0
LINE
  5
40
100
AcDbEntity
  8
1
  6
CONTINUOUS
 62
           3
100
AcDbLine
 10
764.540814718235
 20
856.208298524532
 11
761.288892540666
 21
842.935571251874
  0
LINE
  5
3F
100
AcDbEntity
  8
1
  6
CONTINUOUS
 62
           3
100
AcDbLine
 10
761.288892540666
 20
842.935571251874
 11
773.853355006245
 21
842.935571251874
  0
LINE
  5
3E
100
AcDbEntity
  8
1
  6
CONTINUOUS
 62
           3
100
AcDbLine
 10
773.853355006245
 20
842.935571251874
 11
774.395342035906
 21
845.147692464005
  0
LINE
  5
3D
100
AcDbEntity
  8
1
  6
CONTINUOUS
 62
           3
100
AcDbLine
 10
774.395342035906
 20
845.147692464005
 11
763.924956647886
 21
845.147692464005
  0
LINE
  5
3C
100
AcDbEntity
  8
1
  6
CONTINUOUS
 62
           3
100
AcDbLine
 10
763.924956647886
 20
845.147692464005
 11
766.634891795849
 21
856.208298524532
  0
LINE
  5
3B
100
AcDbEntity
  8
1
  6
CONTINUOUS
 62
           3
100
AcDbLine
 10
766.634891795849
 20
856.208298524532
 11
764.540814718235
 21
856.208298524532
  0
LINE
  5
3A
100
AcDbEntity
  8
1
  6
CONTINUOUS
 62
           3
100
AcDbLine
 10
811.156127082518
 20
850.023901260053
 11
811.156127082518
 21
847.274845834493
  0
LINE
  5
39
100
AcDbEntity
  8
1
  6
CONTINUOUS
 62
           3
100
AcDbLine
 10
810.283679383403
 20
847.274845834493
 11
810.283679383403
 21
854.133314009668
  0
LINE
  5
38
100
AcDbEntity
  8
1
  6
CONTINUOUS
 62
           3
100
AcDbLine
 10
810.283679383403
 20
854.133314009668
 11
812.725599242643
 21
854.133314009668
  0
LINE
  5
37
100
AcDbEntity
  8
1
  6
CONTINUOUS
 62
           3
100
AcDbLine
 10
812.725599242643
 20
854.133314009668
 11
813.021955824995
 21
854.133314009668
  0
LINE
  5
36
100
AcDbEntity
  8
1
  6
CONTINUOUS
 62
           3
100
AcDbLine
 10
814.855590339561
 20
849.154479600837
 11
814.855590339561
 21
847.274845834493
  0
LINE
  5
35
100
AcDbEntity
  8
1
  6
CONTINUOUS
 62
           3
100
AcDbLine
 10
814.855590339561
 20
847.274845834493
 11
813.894403524056
 21
847.274845834493
  0
LINE
  5
34
100
AcDbEntity
  8
1
  6
CONTINUOUS
 62
           3
100
AcDbLine
 10
813.894403524056
 20
847.274845834493
 11
813.894403524056
 21
848.896701102111
  0
LINE
  5
33
100
AcDbEntity
  8
1
  6
CONTINUOUS
 62
           3
100
AcDbLine
 10
812.881188784136
 20
850.023901260053
 11
811.156127082518
 21
850.023901260053
  0
LINE
  5
32
100
AcDbEntity
  8
1
  6
CONTINUOUS
 62
           3
100
AcDbLine
 10
811.156127082518
 20
847.274845834493
 11
810.283679383403
 21
847.274845834493
  0
LINE
  5
31
100
AcDbEntity
  8
1
  6
CONTINUOUS
 62
           3
100
AcDbLine
 10
811.156127082518
 20
850.874124587487
 11
813.14361031046
 21
850.874124587487
  0
LINE
  5
30
100
AcDbEntity
  8
1
  6
CONTINUOUS
 62
           3
100
AcDbLine
 10
813.012100074604
 20
853.32978257749
 11
811.156127082518
 21
853.32978257749
  0
LINE
  5
2F
100
AcDbEntity
  8
1
  6
CONTINUOUS
 62
           3
100
AcDbLine
 10
811.156127082518
 20
853.32978257749
 11
811.156127082518
 21
850.874124587487
  0
ENDBLK
  5
E3
100
AcDbEntity
  8
0
100
AcDbBlockEnd
  0
BLOCK
  5
2A
100
AcDbEntity
  8
0
100
AcDbBlockBegin
  2
WANNE_SMART_LINE_30
 70
           0
 10
0.0
 20
0.0
 30
0.0
  3
WANNE_SMART_LINE_30
  1

  0
SPLINE
  5
FD
100
AcDbEntity
  8
1
  6
CONTINUOUS
 62
           7
100
AcDbSpline
210
0.0
220
0.0
230
1.0
 70
           0
 71
           3
 72
          41
 73
          38
 74
          77
 42
0.00000000001
 43
0.00000000001
 44
0.00000000001
 40
-1.7747031480307385
 40
-0.1491110169696128
 40
1.4764811140914649
 40
3.3442545556985781
 40
5.8688042616056597
 40
9.245333245945746
 40
13.458047720742428
 40
18.410297395420827
 40
23.970225639106005
 40
29.980492803509371
 40
36.267452290357326
 40
42.647709713833805
 40
48.934669200681796
 40
54.94493636508561
 40
60.504864608772074
 40
65.457114283449997
 40
69.669828758244861
 40
73.046357742585613
 40
75.570907448493827
 40
77.438680890100571
 40
79.064273021159863
 40
80.932046462766422
 40
83.456596168673485
 40
86.833125153013981
 40
91.045839627811546
 40
95.998089302490484
 40
101.55801754617561
 40
107.56828471057844
 40
113.85524419742637
 40
120.23550162090183
 40
126.52246110775042
 40
132.53272827215477
 40
138.09265651584013
 40
143.0449061905191
 40
147.25762066531451
 40
150.63414964965432
 40
153.15869935556341
 40
155.02647279717124
 40
156.65206492823125
 40
158.27765705929238
 40
159.90324919035345
 10
1026.8128878299849
 20
105.4480727109151
 30
0.0
 10
1026.0295016890891
 20
106.8724518496349
 30
0.0
 10
1024.224699318635
 20
107.96542827195
 30
0.0
 10
1021.480155066452
 20
109.017116523393
 30
0.0
 10
1017.7862554010439
 20
109.9663477863694
 30
0.0
 10
1013.249072484747
 20
110.7909978256732
 30
0.0
 10
1007.998498468135
 20
111.45968986055711
 30
0.0
 10
1002.1923436712
 20
111.95062045837651
 30
0.0
 10
996.00580497349688
 20
112.24757557364249
 30
0.0
 10
989.6262310625159
 20
112.3409645674471
 30
0.0
 10
983.24697796182591
 20
112.22776268072521
 30
0.0
 10
977.06139136832894
 20
111.9115951728684
 30
0.0
 10
971.25678927986587
 20
111.4026344941756
 30
0.0
 10
966.00831737431486
 20
110.7176387291459
 30
0.0
 10
961.47371749463491
 20
109.8789013242133
 30
0.0
 10
957.78278371659303
 20
108.9182023209748
 30
0.0
 10
955.04151897867905
 20
107.85799528124591
 30
0.0
 10
953.24011982088291
 20
106.75941887041721
 30
0.0
 10
952.46116121955197
 20
105.33261360200299
 30
0.0
 10
953.2445473604439
 20
103.90823446328319
 30
0.0
 10
955.04934973089894
 20
102.8152580409681
 30
0.0
 10
957.79389398308103
 20
101.76356978952499
 30
0.0
 10
961.48779364849088
 20
100.81433852654909
 30
0.0
 10
966.02497656478795
 20
99.989688487245303
 30
0.0
 10
971.27555058140092
 20
99.320996452361896
 30
0.0
 10
977.08170537833485
 20
98.830065854541544
 30
0.0
 10
983.26824407603794
 20
98.533110739276026
 30
0.0
 10
989.64781798701893
 20
98.439721745470933
 30
0.0
 10
996.02707108770687
 20
98.552923632192915
 30
0.0
 10
1002.212657681207
 20
98.869091140050614
 30
0.0
 10
1008.017259769668
 20
99.378051818742506
 30
0.0
 10
1013.2657316752189
 20
100.0630475837727
 30
0.0
 10
1017.800331554901
 20
100.9017849887052
 30
0.0
 10
1021.491265332942
 20
101.86248399194319
 30
0.0
 10
1024.2325300708551
 20
102.9226910316722
 30
0.0
 10
1026.033929228654
 20
104.0212674425013
 30
0.0
 10
1026.8128878299849
 20
105.4480727109151
 30
0.0
 10
1026.0295016890891
 20
106.8724518496349
 30
0.0
 11
1026.4483493012417
 21
106.11088897545564
 31
0.0
 11
1025.9423469066815
 21
106.79825433143887
 31
0.0
 11
1025.2620349473054
 21
107.33722465103004
 31
0.0
 11
1024.1904962833048
 21
107.92085846573818
 31
0.0
 11
1023.0505515486436
 21
108.41535266802259
 31
0.0
 11
1021.4618911229589
 21
108.97225613848224
 31
0.0
 11
1019.8367028102882
 21
109.43943883912038
 31
0.0
 11
1017.7774834313741
 21
109.92938401781947
 31
0.0
 11
1015.7007201131205
 21
110.34540165941873
 31
0.0
 11
1013.2436026999691
 21
110.75835339466533
 31
0.0
 11
1010.7755457172616
 21
111.10601626789619
 31
0.0
 11
1007.9952395622248
 21
111.43024926700609
 31
0.0
 11
1005.2084155953669
 21
111.6956010790139
 31
0.0
 11
1002.1904442521113
 21
111.92314980242658
 31
0.0
 11
999.16867407067821
 21
112.09575721393945
 31
0.0
 11
996.00494894866824
 21
112.22120862812045
 31
0.0
 11
992.83951177700158
 21
112.29392615125741
 31
0.0
 11
989.62627145916042
 21
112.31495050673365
 31
0.0
 11
986.41311193460865
 21
112.28394674078304
 31
0.0
 11
983.24791587159086
 21
112.20139852096356
 31
0.0
 11
980.08459562810299
 21
112.06612198162082
 31
0.0
 11
977.063376095168
 21
111.88413054852037
 31
0.0
 11
974.04612601591111
 21
111.64720986672387
 31
0.0
 11
971.26013960509715
 21
111.37320416394986
 31
0.0
 11
968.48085384474643
 21
111.04033780072439
 31
0.0
 11
966.01388851806109
 21
110.68501144334518
 31
0.0
 11
963.55806547886891
 21
110.26443051436455
 31
0.0
 11
961.48260422211638
 21
109.84196497745356
 31
0.0
 11
959.42491642032633
 21
109.34562674702312
 31
0.0
 11
957.80118689701339
 21
108.87339887560861
 31
0.0
 11
956.21426373454096
 21
108.31156411346164
 31
0.0
 11
955.07586027160073
 21
107.81353191596592
 31
0.0
 11
954.00613939450363
 21
107.22657298791023
 31
0.0
 11
953.32750462168599
 21
106.68549239077878
 31
0.0
 11
952.82363945047427
 21
105.99655883437042
 31
0.0
 11
952.64291540946783
 21
105.33289584395979
 31
0.0
 11
952.82569974829312
 21
104.66979733746274
 31
0.0
 11
953.33170214285224
 21
103.98243198147931
 31
0.0
 11
954.01201410222779
 21
103.44346166188814
 31
0.0
 11
955.08355276622888
 21
102.85982784717996
 31
0.0
 11
956.22349750088995
 21
102.36533364489549
 31
0.0
 11
957.81215792657429
 21
101.80843017443581
 31
0.0
 11
959.43734623924547
 21
101.34124747379785
 31
0.0
 11
961.4965656181605
 21
100.85130229509896
 31
0.0
 11
963.57332893641455
 21
100.43528465349974
 31
0.0
 11
966.03044634956598
 21
100.02233291825321
 31
0.0
 11
968.49850333227391
 21
99.674670045022509
 31
0.0
 11
971.27880948731104
 21
99.350437045912727
 31
0.0
 11
974.06563345416851
 21
99.085085233904636
 31
0.0
 11
977.08360479742385
 21
98.857536510491656
 31
0.0
 11
980.10537497885662
 21
98.684929098978827
 31
0.0
 11
983.26910010086647
 21
98.55947768479794
 31
0.0
 11
986.43453727253336
 21
98.486760161660868
 31
0.0
 11
989.64777759037383
 21
98.465735806184441
 31
0.0
 11
992.86093711492458
 21
98.496739572135027
 31
0.0
 11
996.02613317794248
 21
98.579287791954656
 31
0.0
 11
999.18945342143138
 21
98.714564331297765
 31
0.0
 11
1002.2106729543673
 21
98.896555764398428
 31
0.0
 11
1005.2279230336243
 21
99.13347644619472
 31
0.0
 11
1008.0139094444368
 21
99.407482148968398
 31
0.0
 11
1010.7931952047869
 21
99.740348512193918
 31
0.0
 11
1013.2601605314726
 21
100.09567486957333
 31
0.0
 11
1015.7159835706661
 21
100.51625579855403
 31
0.0
 11
1017.7914448274194
 21
100.93872133546489
 31
0.0
 11
1019.8491326292096
 21
101.43505956589519
 31
0.0
 11
1021.4728621525217
 21
101.90728743730946
 31
0.0
 11
1023.0597853149933
 21
102.46912219945625
 31
0.0
 11
1024.1981887779339
 21
102.96715439695217
 31
0.0
 11
1025.2679096550319
 21
103.55411332500805
 31
0.0
 11
1025.9465444278505
 21
104.09519392213963
 31
0.0
 11
1026.4504095990626
 21
104.78412747854793
 31
0.0
 11
1026.6243450046425
 21
105.46013379516323
 31
0.0
 11
1026.4211947595372
 21
106.16026228027476
 31
0.0
 11
1026.2253482243132
 21
106.5163570649549
 31
0.0
 11
1026.4211947595368
 21
106.16026228027498
 31
0.0
 11
1026.6238299301872
 21
105.7918241693902
 31
0.0
 11
1026.4483493012417
 21
106.11088897545564
 31
0.0
  0
CIRCLE
  5
FC
100
AcDbEntity
  8
WANNE
  6
CONTINUOUS
 62
           7
100
AcDbCircle
 10
989.637024524762
 20
581.809464907507
 40
45.0
  0
CIRCLE
  5
FB
100
AcDbEntity
  8
WANNE
  6
CONTINUOUS
 62
           7
100
AcDbCircle
 10
989.637024524762
 20
581.809464907507
 40
26.0
  0
ARC
  5
FA
100
AcDbEntity
  8
1
  6
CONTINUOUS
 62
           7
100
AcDbCircle
 10
989.637024524776
 20
9.828593046115
 40
1070.000000000003
100
AcDbArc
 50
49.697593455864
 51
90.0
  0
ARC
  5
F9
100
AcDbEntity
  8
1
  6
CONTINUOUS
 62
           7
100
AcDbCircle
 10
989.637024524779
 20
1150.000000000011
 40
1055.000000000016
100
AcDbArc
 50
-148.740119802245
 51
-90.0
  0
ARC
  5
F8
100
AcDbEntity
  8
1
  6
CONTINUOUS
 62
           7
100
AcDbCircle
 10
989.637024524778
 20
1150.000000000017
 40
1150.000000000017
100
AcDbArc
 50
-135.0
 51
-90.0
  0
ARC
  5
F7
100
AcDbEntity
  8
1
  6
CONTINUOUS
 62
           7
100
AcDbCircle
 10
989.637024524778
 20
1150.000000000017
 40
1150.000000000017
100
AcDbArc
 50
-149.378835612499
 51
-135.0
  0
ARC
  5
F6
100
AcDbEntity
  8
1
  6
CONTINUOUS
 62
           7
100
AcDbCircle
 10
989.637024524778
 20
1150.000000000017
 40
1150.000000000017
100
AcDbArc
 50
-90.0
 51
-30.621164387503
  0
ARC
  5
F5
100
AcDbEntity
  8
1
  6
CONTINUOUS
 62
           7
100
AcDbCircle
 10
985.537278530013
 20
1103.800889402047
 40
980.000000000028
100
AcDbArc
 50
-98.615570020659
 51
-51.671022120923
  0
ARC
  5
F4
100
AcDbEntity
  8
1
  6
CONTINUOUS
 62
           7
100
AcDbCircle
 10
923.843367484231
 20
581.809464907504
 40
450.000000000003
100
AcDbArc
 50
-175.918883291352
 51
-137.26026245827
  0
ARC
  5
F3
100
AcDbEntity
  8
1
  6
CONTINUOUS
 62
           7
100
AcDbCircle
 10
955.637024524821
 20
621.000000000083
 40
500.000000000098
100
AcDbArc
 50
-136.434500794201
 51
-103.521804478859
  0
ARC
  5
F2
100
AcDbEntity
  8
1
  6
CONTINUOUS
 62
           7
100
AcDbCircle
 10
1356.772310465586
 20
568.884860664172
 40
325.000000000402
100
AcDbArc
 50
46.255726734235
 51
56.016344903487
  0
ARC
  5
F1
100
AcDbEntity
  8
1
  6
CONTINUOUS
 62
           7
100
AcDbCircle
 10
1384.592028129536
 20
564.236771647649
 40
309.999999999993
100
AcDbArc
 50
-47.679077246603
 51
50.568396685468
  0
ARC
  5
F0
100
AcDbEntity
  8
1
  6
CONTINUOUS
 62
           7
100
AcDbCircle
 10
936.637024524713
 20
471.000000000075
 40
499.999999999907
100
AcDbArc
 50
96.919665358178
 51
146.86892056283
  0
ARC
  5
EF
100
AcDbEntity
  8
1
  6
CONTINUOUS
 62
           7
100
AcDbCircle
 10
824.096938226905
 20
574.692594077165
 40
349.99999999999
100
AcDbArc
 50
151.018306447917
 51
-175.918883291354
  0
ARC
  5
EE
100
AcDbEntity
  8
1
  6
CONTINUOUS
 62
           7
100
AcDbCircle
 10
989.637024524779
 20
1150.000000000011
 40
1055.000000000016
100
AcDbArc
 50
-90.0
 51
-31.259880197755
  0
ARC
  5
ED
100
AcDbEntity
  8
1
  6
CONTINUOUS
 62
           7
100
AcDbCircle
 10
504.520665055534
 20
581.809464907509
 40
320.000000000003
100
AcDbArc
 50
-179.999999999999
 51
-149.363212336268
  0
ARC
  5
EC
100
AcDbEntity
  8
1
  6
CONTINUOUS
 62
           7
100
AcDbCircle
 10
1474.753383994071
 20
581.809464907493
 40
319.999999999952
100
AcDbArc
 50
-30.636787663735
 51
0.000000000003
  0
ARC
  5
EB
100
AcDbEntity
  8
1
  6
CONTINUOUS
 62
           7
100
AcDbCircle
 10
1474.753383994071
 20
581.809464907522
 40
319.999999999952
100
AcDbArc
 50
-0.000000000003
 51
49.697593455864
  0
ARC
  5
EA
100
AcDbEntity
  8
1
  6
CONTINUOUS
 62
           7
100
AcDbCircle
 10
504.520665055534
 20
581.809464907506
 40
319.999999999995
100
AcDbArc
 50
130.302406544133
 51
179.999999999999
  0
ARC
  5
E9
100
AcDbEntity
  8
1
  6
CONTINUOUS
 62
           7
100
AcDbCircle
 10
1027.384424700527
 20
-21.177848021045
 40
999.999999999997
100
AcDbArc
 50
59.266291001213
 51
98.684081779509
  0
ARC
  5
E8
100
AcDbEntity
  8
1
  6
CONTINUOUS
 62
           7
100
AcDbCircle
 10
989.637024524776
 20
9.828593046115
 40
1070.000000000001
100
AcDbArc
 50
90.0
 51
130.302406544133
  0
LINE
  5
E7
100
AcDbEntity
  8
1
  6
CONTINUOUS
 62
           7
100
AcDbLine
 10
989.637024524767
 20
1553.873796172394
 11
0.0
 21
564.236771647654
  0
LINE
  5
E6
100
AcDbEntity
  8
1
  6
CONTINUOUS
 62
           7
100
AcDbLine
 10
989.637024524767
 20
1553.873796172394
 11
1979.274049049539
 21
564.236771647625
  0
LINE
  5
E5
100
AcDbEntity
  8
MITTELLINIEN
  6
DOT_CENTER
 62
           3
100
AcDbLine
 10
989.637024524767
 20
645.799419907506
 11
989.637024524767
 21
516.131445907506
  0
LINE
  5
E4
100
AcDbEntity
  8
MITTELLINIEN
  6
DOT_CENTER
 62
           3
100
AcDbLine
 10
1053.626979524766
 20
581.809464907507
 11
923.959005524754
 21
581.809464907507
  0
ENDBLK
  5
FE
100
AcDbEntity
  8
0
100
AcDbBlockEnd
  0
ENDSEC
  0
SECTION
  2
ENTITIES
  0
MTEXT
  5
102
100
AcDbEntity
  8
1
 62
           3
100
AcDbMText
 10
939.637024524767
 20
531.809464907507
 30
0.0
 40
35.0
 41
0.0
 71
           3
 72
           1
  1
ø 52
  7
CONVERTER_1
  0
TEXT
  5
101
100
AcDbEntity
  8
1
 62
           2
100
AcDbText
 10
639.949490946819
 20
724.823790046212
 40
35.0
  1
Smart-Line 30
 41
0.71262
  7
CONVERTER_1
100
AcDbText
  0
INSERT
  5
2D
100
AcDbEntity
  8
0
100
AcDbBlockReference
  2
DLX
 10
0.0
 20
0.0
  0
INSERT
  5
2E
100
AcDbEntity
  8
0
100
AcDbBlockReference
  2
WANNE_SMART_LINE_30
 10
0.0
 20
0.0
  0
ENDSEC
  0
SECTION
  2
OBJECTS
  0
DICTIONARY
  5
19
100
AcDbDictionary
  3
ACAD_GROUP
350
1A
  3
ACAD_MLINESTYLE
350
1B
  0
DICTIONARY
  5
1A
102
{ACAD_REACTORS
330
19
102
}
100
AcDbDictionary
  0
DICTIONARY
  5
1B
102
{ACAD_REACTORS
330
19
102
}
100
AcDbDictionary
  3
STANDARD
350
1C
  0
MLINESTYLE
  5
1C
102
{ACAD_REACTORS
330
1B
102
}
100
AcDbMlineStyle
  2
STANDARD
 70
           0
  3

 62
           0
 51
90.0
 52
90.0
 71
           2
 49
0.5
 62
         256
  6
BYLAYER
 49
-0.5
 62
         256
  6
BYLAYER
  0
ENDSEC
  0
EOF
