  0
SECTION
  2
HEADER
  9
$ACADVER
  1
AC1014
  9
$ACADMAINTVER
 70
           0
  9
$DWGCODEPAGE
  3
ANSI_1252
  9
$INSBASE
 10
0.0
 20
0.0
 30
0.0
  9
$EXTMIN
 10
1.000000000000E+20
 20
1.000000000000E+20
 30
1.000000000000E+20
  9
$EXTMAX
 10
-1.000000000000E+20
 20
-1.000000000000E+20
 30
-1.000000000000E+20
  9
$LIMMIN
 10
0.0
 20
0.0
  9
$LIMMAX
 10
0.0
 20
0.0
  9
$ORTHOMODE
 70
           0
  9
$REGENMODE
 70
           1
  9
$FILLMODE
 70
           1
  9
$QTEXTMODE
 70
           0
  9
$MIRRTEXT
 70
           1
  9
$DRAGMODE
 70
           2
  9
$LTSCALE
 40
1.0
  9
$OSMODE
 70
           0
  9
$ATTMODE
 70
           1
  9
$TEXTSIZE
 40
0.2
  9
$TRACEWID
 40
0.05
  9
$TEXTSTYLE
  7
STANDARD
  9
$CLAYER
  8
0
  9
$CELTYPE
  6
CONTINUOUS
  9
$CECOLOR
 62
         256
  9
$CELTSCALE
 40
1.0
  9
$DELOBJ
 70
           1
  9
$DISPSILH
 70
           0
  9
$DIMSCALE
 40
1.0
  9
$DIMASZ
 40
0.18
  9
$DIMEXO
 40
0.0625
  9
$DIMDLI
 40
0.38
  9
$DIMRND
 40
0.0
  9
$DIMDLE
 40
0.0
  9
$DIMEXE
 40
0.18
  9
$DIMTP
 40
0.0
  9
$DIMTM
 40
0.0
  9
$DIMTXT
 40
0.18
  9
$DIMCEN
 40
0.09
  9
$DIMTSZ
 40
0.0
  9
$DIMTOL
 70
           0
  9
$DIMLIM
 70
           0
  9
$DIMTIH
 70
           1
  9
$DIMTOH
 70
           1
  9
$DIMSE1
 70
           0
  9
$DIMSE2
 70
           0
  9
$DIMTAD
 70
           0
  9
$DIMZIN
 70
           0
  9
$DIMBLK
  1

  9
$DIMASO
 70
           1
  9
$DIMSHO
 70
           1
  9
$DIMPOST
  1

  9
$DIMAPOST
  1

  9
$DIMALT
 70
           0
  9
$DIMALTD
 70
           2
  9
$DIMALTF
 40
25.4
  9
$DIMLFAC
 40
1.0
  9
$DIMTOFL
 70
           0
  9
$DIMTVP
 40
0.0
  9
$DIMTIX
 70
           0
  9
$DIMSOXD
 70
           0
  9
$DIMSAH
 70
           0
  9
$DIMBLK1
  1

  9
$DIMBLK2
  1

  9
$DIMSTYLE
  2
STANDARD
  9
$DIMCLRD
 70
           0
  9
$DIMCLRE
 70
           0
  9
$DIMCLRT
 70
           0
  9
$DIMTFAC
 40
1.0
  9
$DIMGAP
 40
0.09
  9
$DIMJUST
 70
           0
  9
$DIMSD1
 70
           0
  9
$DIMSD2
 70
           0
  9
$DIMTOLJ
 70
           1
  9
$DIMTZIN
 70
           0
  9
$DIMALTZ
 70
           0
  9
$DIMALTTZ
 70
           0
  9
$DIMFIT
 70
           3
  9
$DIMUPT
 70
           0
  9
$DIMUNIT
 70
           2
  9
$DIMDEC
 70
           4
  9
$DIMTDEC
 70
           4
  9
$DIMALTU
 70
           2
  9
$DIMALTTD
 70
           2
  9
$DIMTXSTY
  7
STANDARD
  9
$DIMAUNIT
 70
           0
  9
$LUNITS
 70
           2
  9
$LUPREC
 70
           4
  9
$SKETCHINC
 40
0.1
  9
$FILLETRAD
 40
0.0
  9
$AUNITS
 70
           0
  9
$AUPREC
 70
           0
  9
$MENU
  1
acad
  9
$ELEVATION
 40
0.0
  9
$PELEVATION
 40
0.0
  9
$THICKNESS
 40
0.0
  9
$LIMCHECK
 70
           0
  9
$BLIPMODE
 70
           1
  9
$CHAMFERA
 40
0.0
  9
$CHAMFERB
 40
0.0
  9
$CHAMFERC
 40
0.0
  9
$CHAMFERD
 40
0.0
  9
$SKPOLY
 70
           0
  9
$TDCREATE
 40
0.000000000
  9
$TDUPDATE
 40
0.000000000
  9
$TDINDWG
 40
0.0000000000
  9
$TDUSRTIMER
 40
0.0000000000
  9
$USRTIMER
 70
           1
  9
$ANGBASE
 50
0.0
  9
$ANGDIR
 70
           0
  9
$PDMODE
 70
           0
  9
$PDSIZE
 40
0.0
  9
$PLINEWID
 40
0.0
  9
$COORDS
 70
           0
  9
$SPLFRAME
 70
           0
  9
$SPLINETYPE
 70
           6
  9
$SPLINESEGS
 70
           8
  9
$ATTDIA
 70
           0
  9
$ATTREQ
 70
           1
  9
$HANDLING
 70
           1
  9
$HANDSEED
  5
10A
  9
$SURFTAB1
 70
           6
  9
$SURFTAB2
 70
           6
  9
$SURFTYPE
 70
           6
  9
$SURFU
 70
           6
  9
$SURFV
 70
           6
  9
$UCSNAME
  2

  9
$UCSORG
 10
0.0
 20
0.0
 30
0.0
  9
$UCSXDIR
 10
1.0
 20
0.0
 30
0.0
  9
$UCSYDIR
 10
0.0
 20
1.0
 30
0.0
  9
$PUCSNAME
  2

  9
$PUCSORG
 10
0.0
 20
0.0
 30
0.0
  9
$PUCSXDIR
 10
1.0
 20
0.0
 30
0.0
  9
$PUCSYDIR
 10
0.0
 20
1.0
 30
0.0
  9
$USERI1
 70
           0
  9
$USERI2
 70
           0
  9
$USERI3
 70
           0
  9
$USERI4
 70
           0
  9
$USERI5
 70
           0
  9
$USERR1
 40
0.0
  9
$USERR2
 40
0.0
  9
$USERR3
 40
0.0
  9
$USERR4
 40
0.0
  9
$USERR5
 40
0.0
  9
$WORLDVIEW
 70
           1
  9
$SHADEDGE
 70
           3
  9
$SHADEDIF
 70
          70
  9
$TILEMODE
 70
           1
  9
$MAXACTVP
 70
          16
  9
$PINSBASE
 10
0.0
 20
0.0
 30
0.0
  9
$PLIMCHECK
 70
           0
  9
$PEXTMIN
 10
1.000000000000E+20
 20
1.000000000000E+20
 30
1.000000000000E+20
  9
$PEXTMAX
 10
-1.000000000000E+20
 20
-1.000000000000E+20
 30
-1.000000000000E+20
  9
$PLIMMIN
 10
0.0
 20
0.0
  9
$PLIMMAX
 10
12.0
 20
9.0
  9
$UNITMODE
 70
           0
  9
$VISRETAIN
 70
           0
  9
$PLINEGEN
 70
           1
  9
$PSLTSCALE
 70
           0
  9
$TREEDEPTH
 70
        3020
  9
$PICKSTYLE
 70
           1
  9
$CMLSTYLE
  2
STANDARD
  9
$CMLJUST
 70
           0
  9
$CMLSCALE
 40
1.0
  9
$PROXYGRAPHICS
 70
           0
  9
$MEASUREMENT
 70
           0
  0
ENDSEC
  0
SECTION
  2
CLASSES
  0
CLASS
  1
LWPOLYLINE
  2
AcDbPolyline
  3
"AutoCAD"
 90
        0
280
           0
281
           1
  0
CLASS
  1
IMAGE
  2
AcDbRasterImage
  3
ISM
 90
      127
280
           0
281
           1
  0
CLASS
  1
OLE2FRAME
  2
AcDbOle2Frame
  3
""
 90
        0
280
           0
281
           1
  0
CLASS
  1
HATCH
  2
AcDbHatch
  3
"ACAD_SEDONA"
 90
        0
280
           0
281
           1
  0
CLASS
  1
DICTIONARYVAR
  2
AcDbDictionaryVar
  3
"AutoCAD"
 90
        0
280
           0
281
           0
  0
CLASS
  1
RASTERVARIABLES
  2
AcDbRasterVariables
  3
ISM
 90
        0
280
           0
281
           0
  0
CLASS
  1
IMAGEDEF
  2
AcDbRasterImageDef
  3
ISM
 90
        0
280
           0
281
           0
  0
CLASS
  1
IMAGEDEF_REACTOR
  2
AcDbRasterImageDefReactor
  3
ISM
 90
        1
280
           0
281
           0
  0
CLASS
  1
IDBUFFER
  2
AcDbIdBuffer
  3
"Acad"
 90
        0
280
           0
281
           0
  0
CLASS
  1
SPATIAL_FILTER
  2
AcDbSpatialFilter
  3
"Acad"
 90
        0
280
           0
281
           0
  0
CLASS
  1
XRECORD
  2
AcDbXrecord
  3
"<Built In>"
 90
        0
280
           0
281
           0
  0
CLASS
  1
SORTENTSTABLE
  2
AcDbSortentsTable
  3
"AutoCAD"
 90
        0
280
           0
281
           0
  0
CLASS
  1
LAYER_INDEX
  2
AcDbLayerIndex
  3
"Acad"
 90
        0
280
           0
281
           0
  0
CLASS
  1
SPATIAL_INDEX
  2
AcDbSpatialIndex
  3
"Acad"
 90
        0
280
           0
281
           0
  0
CLASS
  1
OBJECT_PTR
  2
CAseDLPNTableRecord
  3
"ASE-LPNTableRecord"
 90
        1
280
           0
281
           0
  0
CLASS
  1
LAYOUT
  2
AcDbLayout
  3
"AutoCAD 2000"
 90
        1
280
           0
281
           0
  0
CLASS
  1
PLOTSETTINGS
  2
AcDbPlotSettings
  3
"AutoCAD 2000"
 90
        1
280
           0
281
           0
  0
CLASS
  1
ACDBDICTIONARYWDFLT
  2
AcDbDictionaryWithDefault
  3
"AutoCAD 2000"
 90
        1
280
           0
281
           0
  0
CLASS
  1
ACDBPLACEHOLDER
  2
AcDbPlaceHolder
  3
"AutoCAD 2000"
 90
        1
280
           0
281
           0
  0
CLASS
  1
VBA_PROJECT
  2
AcDbVbaProject
  3
"acadvba"
 90
        1
280
           0
281
           0
  0
CLASS
  1
WIPEOUT
  2
AcDbWipeout
  3
WipeOut|AutoCAD Express Tool|expresstools@autodesk.com
 90
      127
280
           0
281
           1
  0
CLASS
  1
WIPEOUTVARIABLES
  2
AcDbWipeoutVariables
  3
WipeOut|AutoCAD Express Tool|expresstools@autodesk.com
 90
        0
280
           0
281
           0
  0
CLASS
  1
RTEXT
  2
RText
  3
RText|AutoCAD Express Tool|expresstools@autodesk.com
 90
        0
280
           0
281
           1
  0
CLASS
  1
ARCALIGNEDTEXT
  2
AcDbArcAlignedText
  3
ATEXT|AutoCAD Express Tool|expresstools@autodesk.com
 90
        0
280
           0
281
           1
  0
ENDSEC
  0
SECTION
  2
TABLES
  0
TABLE
  2
VPORT
  5
7
100
AcDbSymbolTable
 70
           1
  0
VPORT
  5
15
100
AcDbSymbolTableRecord
100
AcDbViewportTableRecord
  2
*ACTIVE
 70
           0
 10
0.0
 20
0.0
 11
1.0
 21
1.0
 12
6.591288
 22
4.579184
 13
0.0
 23
0.0
 14
1.0
 24
1.0
 15
0.0
 25
0.0
 16
0.0
 26
0.0
 36
1.0
 17
0.0
 27
0.0
 37
0.0
 40
9.158369
 41
0.688564
 42
50.0
 43
0.0
 44
0.0
 50
0.0
 51
0.0
 71
           0
 72
         100
 73
           1
 74
           1
 75
           0
 76
           0
 77
           0
 78
           0
  0
ENDTAB
  0
TABLE
  2
LTYPE
  5
4
100
AcDbSymbolTable
 70
          10
  0
LTYPE
  5
11
100
AcDbSymbolTableRecord
100
AcDbLinetypeTableRecord
  2
BYBLOCK
 70
          64
  3

 72
          65
 73
           0
 40
0.0
  0
LTYPE
  5
12
100
AcDbSymbolTableRecord
100
AcDbLinetypeTableRecord
  2
BYLAYER
 70
          64
  3

 72
          65
 73
           0
 40
0.0
  0
LTYPE
  5
13
100
AcDbSymbolTableRecord
100
AcDbLinetypeTableRecord
  2
CONTINUOUS
 70
          64
  3
Solid line
 72
          65
 73
           0
 40
0.0
  0
LTYPE
  5
1D
100
AcDbSymbolTableRecord
100
AcDbLinetypeTableRecord
  2
DASHED
 70
          64
  3
Dashed
 72
          65
 73
           2
 40
15.0
 49
12.0
 74
           0
 49
-3.0
 74
           0
  0
LTYPE
  5
1E
100
AcDbSymbolTableRecord
100
AcDbLinetypeTableRecord
  2
DOTTED
 70
          64
  3
Dotted
 72
          65
 73
           2
 40
3.5
 49
0.5
 74
           0
 49
-3.0
 74
           0
  0
LTYPE
  5
1F
100
AcDbSymbolTableRecord
100
AcDbLinetypeTableRecord
  2
DOT_CENTER
 70
          64
  3
Dot_Center
 72
          65
 73
           4
 40
2.0
 49
1.25
 74
           0
 49
-0.25
 74
           0
 49
0.25
 74
           0
 49
-0.25
 74
           0
  0
LTYPE
  5
20
100
AcDbSymbolTableRecord
100
AcDbLinetypeTableRecord
  2
LONG_DASHED
 70
          64
  3
Long_Dashed
 72
          65
 73
           2
 40
2.0
 49
1.5
 74
           0
 49
-0.5
 74
           0
  0
LTYPE
  5
21
100
AcDbSymbolTableRecord
100
AcDbLinetypeTableRecord
  2
DASH_CENTER
 70
          64
  3
Dash_Center
 72
          65
 73
           4
 40
36.0
 49
24.0
 74
           0
 49
-3.0
 74
           0
 49
6.0
 74
           0
 49
-3.0
 74
           0
  0
LTYPE
  5
22
100
AcDbSymbolTableRecord
100
AcDbLinetypeTableRecord
  2
PHANTOM
 70
          64
  3
Phantom
 72
          65
 73
           6
 40
2.5
 49
1.25
 74
           0
 49
-0.25
 74
           0
 49
0.25
 74
           0
 49
-0.25
 74
           0
 49
0.25
 74
           0
 49
-0.25
 74
           0
  0
LTYPE
  5
23
100
AcDbSymbolTableRecord
100
AcDbLinetypeTableRecord
  2
CENTER_DASH_DASH
 70
          64
  3
Center_Dash_Dash
 72
          65
 73
           6
 40
22.0
 49
12.0
 74
           0
 49
-3.0
 74
           0
 49
0.5
 74
           0
 49
-3.0
 74
           0
 49
0.5
 74
           0
 49
-3.0
 74
           0
  0
ENDTAB
  0
TABLE
  2
LAYER
  5
2
100
AcDbSymbolTable
 70
           4
  0
LAYER
  5
14
100
AcDbSymbolTableRecord
100
AcDbLayerTableRecord
  2
0
 70
           0
 62
           7
  6
CONTINUOUS
  0
LAYER
  5
24
100
AcDbSymbolTableRecord
100
AcDbLayerTableRecord
  2
MITTELLINIEN
 70
           0
 62
           7
  6
CONTINUOUS
  0
LAYER
  5
25
100
AcDbSymbolTableRecord
100
AcDbLayerTableRecord
  2
1
 70
           0
 62
           7
  6
CONTINUOUS
  0
LAYER
  5
26
100
AcDbSymbolTableRecord
100
AcDbLayerTableRecord
  2
WANNE
 70
           0
 62
           7
  6
CONTINUOUS
  0
ENDTAB
  0
TABLE
  2
STYLE
  5
3
100
AcDbSymbolTable
 70
           2
  0
STYLE
  5
17
100
AcDbSymbolTableRecord
100
AcDbTextStyleTableRecord
  2
STANDARD
 70
           0
 40
0.0
 41
1.0
 50
0.0
 71
           0
 42
0.0
  3
txt
  4

  0
STYLE
  5
106
100
AcDbSymbolTableRecord
100
AcDbTextStyleTableRecord
  2
CONVERTER_1
 70
           0
 40
0.0
 41
0.71262
 50
0.0
 71
           0
 42
0.0
  3
txt.shx
  4

  0
ENDTAB
  0
TABLE
  2
VIEW
  5
5
100
AcDbSymbolTable
 70
           0
  0
ENDTAB
  0
TABLE
  2
UCS
  5
6
100
AcDbSymbolTable
 70
           0
  0
ENDTAB
  0
TABLE
  2
APPID
  5
8
100
AcDbSymbolTable
 70
           1
  0
APPID
  5
16
100
AcDbSymbolTableRecord
100
AcDbRegAppTableRecord
  2
ACAD
 70
           0
  0
ENDTAB
  0
TABLE
  2
DIMSTYLE
  5
9
100
AcDbSymbolTable
 70
           1
  0
DIMSTYLE
105
18
100
AcDbSymbolTableRecord
100
AcDbDimStyleTableRecord
  2
STANDARD
 70
           0
  3

  4

  5

  6

  7

 40
1.0
 41
0.18
 42
0.0625
 43
0.38
 44
0.18
 45
0.0
 46
0.0
 47
0.0
 48
0.0
 71
           0
 72
           0
 73
           1
 74
           1
 75
           0
 76
           0
 77
           0
 78
           0
140
0.18
141
0.09
142
0.0
143
25.4
144
1.0
145
0.0
146
1.0
147
0.09
170
           0
171
           2
172
           0
173
           0
174
           0
175
           0
176
           0
177
           0
178
           0
270
           2
271
           4
272
           4
273
           2
274
           2
275
           0
280
           0
281
           0
282
           0
283
           1
284
           0
285
           0
286
           0
287
           0
288
           0
340
17
  0
ENDTAB
  0
TABLE
  2
BLOCK_RECORD
  5
1
100
AcDbSymbolTable
 70
           2
  0
BLOCK_RECORD
  5
A
100
AcDbSymbolTableRecord
100
AcDbBlockTableRecord
  2
*MODEL_SPACE
  0
BLOCK_RECORD
  5
B
100
AcDbSymbolTableRecord
100
AcDbBlockTableRecord
  2
*PAPER_SPACE
  0
BLOCK_RECORD
  5
27
100
AcDbSymbolTableRecord
100
AcDbBlockTableRecord
  2
DLX
  0
BLOCK_RECORD
  5
29
100
AcDbSymbolTableRecord
100
AcDbBlockTableRecord
  2
WANNE_SMART_LINE_32
  0
ENDTAB
  0
ENDSEC
  0
SECTION
  2
BLOCKS
  0
BLOCK
  5
D
100
AcDbEntity
  8
0
100
AcDbBlockBegin
  2
*MODEL_SPACE
 70
           0
 10
0.0
 20
0.0
 30
0.0
  3
*MODEL_SPACE
  1

  0
ENDBLK
  5
E
100
AcDbEntity
  8
0
100
AcDbBlockEnd
  0
BLOCK
  5
F
100
AcDbEntity
 67
           1
  8
0
100
AcDbBlockBegin
  2
*PAPER_SPACE
 70
           0
 10
0.0
 20
0.0
 30
0.0
  3
*PAPER_SPACE
  1

  0
ENDBLK
  5
10
100
AcDbEntity
 67
           1
  8
0
100
AcDbBlockEnd
  0
BLOCK
  5
28
100
AcDbEntity
  8
0
100
AcDbBlockBegin
  2
DLX
 70
           0
 10
0.0
 20
0.0
 30
0.0
  3
DLX
  1

  0
CIRCLE
  5
E2
100
AcDbEntity
  8
1
  6
CONTINUOUS
 62
           3
100
AcDbCircle
 10
747.735875237937
 20
650.878787878755
 40
5.530127989696
  0
CIRCLE
  5
E1
100
AcDbEntity
  8
1
  6
CONTINUOUS
 62
           3
100
AcDbCircle
 10
747.735875237937
 20
650.878787878755
 40
5.972862778754
  0
ARC
  5
E0
100
AcDbEntity
  8
1
  6
CONTINUOUS
 62
           3
100
AcDbCircle
 10
748.514586791596
 20
649.362233682226
 40
1.391870091328
100
AcDbArc
 50
-1.298612665727
 51
66.544866494045
  0
ARC
  5
DF
100
AcDbEntity
  8
1
  6
CONTINUOUS
 62
           3
100
AcDbCircle
 10
747.789193605106
 20
649.053039389822
 40
1.155889798232
100
AcDbArc
 50
0.985058170485
 51
82.918254632932
  0
ARC
  5
DE
100
AcDbEntity
  8
1
  6
CONTINUOUS
 62
           3
100
AcDbCircle
 10
747.864376243302
 20
652.264025930551
 40
1.257687287767
100
AcDbArc
 50
-74.800419047057
 51
80.931395238788
  0
ARC
  5
DD
100
AcDbEntity
  8
1
  6
CONTINUOUS
 62
           3
100
AcDbCircle
 10
747.942694069316
 20
652.303919921381
 40
2.009798008862
100
AcDbArc
 50
-55.929988464572
 51
86.297888718258
  0
LINE
  5
DC
100
AcDbEntity
  8
1
  6
CONTINUOUS
 62
           3
100
AcDbLine
 10
746.206636135699
 20
653.505992531278
 11
746.206636135699
 21
651.050334541276
  0
LINE
  5
DB
100
AcDbEntity
  8
1
  6
CONTINUOUS
 62
           3
100
AcDbLine
 10
748.062609127785
 20
653.505992531278
 11
746.206636135699
 21
653.505992531278
  0
LINE
  5
DA
100
AcDbEntity
  8
1
  6
CONTINUOUS
 62
           3
100
AcDbLine
 10
746.206636135699
 20
651.050334541276
 11
748.194119363641
 21
651.050334541276
  0
LINE
  5
D9
100
AcDbEntity
  8
1
  6
CONTINUOUS
 62
           3
100
AcDbLine
 10
746.206636135699
 20
647.451055788282
 11
745.334188436584
 21
647.451055788282
  0
LINE
  5
D8
100
AcDbEntity
  8
1
  6
CONTINUOUS
 62
           3
100
AcDbLine
 10
747.931697837317
 20
650.200111213842
 11
746.206636135699
 21
650.200111213842
  0
LINE
  5
D7
100
AcDbEntity
  8
1
  6
CONTINUOUS
 62
           3
100
AcDbLine
 10
748.944912577237
 20
647.451055788282
 11
748.944912577237
 21
649.0729110559
  0
LINE
  5
D6
100
AcDbEntity
  8
1
  6
CONTINUOUS
 62
           3
100
AcDbLine
 10
749.906099392742
 20
647.451055788282
 11
748.944912577237
 21
647.451055788282
  0
LINE
  5
D5
100
AcDbEntity
  8
1
  6
CONTINUOUS
 62
           3
100
AcDbLine
 10
749.906099392742
 20
649.330689554626
 11
749.906099392742
 21
647.451055788282
  0
LINE
  5
D4
100
AcDbEntity
  8
1
  6
CONTINUOUS
 62
           3
100
AcDbLine
 10
747.776108295824
 20
654.309523963456
 11
748.072464878176
 21
654.309523963456
  0
LINE
  5
D3
100
AcDbEntity
  8
1
  6
CONTINUOUS
 62
           3
100
AcDbLine
 10
745.334188436584
 20
654.309523963456
 11
747.776108295824
 21
654.309523963456
  0
LINE
  5
D2
100
AcDbEntity
  8
1
  6
CONTINUOUS
 62
           3
100
AcDbLine
 10
745.334188436584
 20
647.451055788282
 11
745.334188436584
 21
654.309523963456
  0
LINE
  5
D1
100
AcDbEntity
  8
1
  6
CONTINUOUS
 62
           3
100
AcDbLine
 10
746.206636135699
 20
650.200111213842
 11
746.206636135699
 21
647.451055788282
  0
LINE
  5
D0
100
AcDbEntity
  8
1
  6
CONTINUOUS
 62
           3
100
AcDbLine
 10
701.68540084903
 20
656.38450847832
 11
699.591323771416
 21
656.38450847832
  0
LINE
  5
CF
100
AcDbEntity
  8
1
  6
CONTINUOUS
 62
           3
100
AcDbLine
 10
698.975465701067
 20
645.323902417793
 11
701.68540084903
 21
656.38450847832
  0
LINE
  5
CE
100
AcDbEntity
  8
1
  6
CONTINUOUS
 62
           3
100
AcDbLine
 10
709.445851089087
 20
645.323902417793
 11
698.975465701067
 21
645.323902417793
  0
LINE
  5
CD
100
AcDbEntity
  8
1
  6
CONTINUOUS
 62
           3
100
AcDbLine
 10
708.903864059426
 20
643.111781205662
 11
709.445851089087
 21
645.323902417793
  0
LINE
  5
CC
100
AcDbEntity
  8
1
  6
CONTINUOUS
 62
           3
100
AcDbLine
 10
696.339401593847
 20
643.111781205662
 11
708.903864059426
 21
643.111781205662
  0
LINE
  5
CB
100
AcDbEntity
  8
1
  6
CONTINUOUS
 62
           3
100
AcDbLine
 10
699.591323771416
 20
656.38450847832
 11
696.339401593847
 21
643.111781205662
  0
LINE
  5
CA
100
AcDbEntity
  8
1
  6
CONTINUOUS
 62
           3
100
AcDbLine
 10
686.144653716558
 20
647.536023629844
 11
689.900368855924
 21
654.172387266269
  0
LINE
  5
C9
100
AcDbEntity
  8
1
  6
CONTINUOUS
 62
           3
100
AcDbLine
 10
690.957172001214
 20
654.172387266269
 11
689.900368855924
 21
654.172387266269
  0
LINE
  5
C8
100
AcDbEntity
  8
1
  6
CONTINUOUS
 62
           3
100
AcDbLine
 10
691.460964963069
 20
647.536023629844
 11
690.957172001214
 21
654.172387266269
  0
LINE
  5
C7
100
AcDbEntity
  8
1
  6
CONTINUOUS
 62
           3
100
AcDbLine
 10
686.144653716558
 20
647.536023629844
 11
691.460964963069
 21
647.536023629844
  0
LINE
  5
C6
100
AcDbEntity
  8
1
  6
CONTINUOUS
 62
           3
100
AcDbLine
 10
683.640843623664
 20
643.111781205662
 11
681.262046635093
 21
643.111781205662
  0
LINE
  5
C5
100
AcDbEntity
  8
1
  6
CONTINUOUS
 62
           3
100
AcDbLine
 10
684.892748670027
 20
645.323902417793
 11
683.640843623664
 21
643.111781205662
  0
LINE
  5
C4
100
AcDbEntity
  8
1
  6
CONTINUOUS
 62
           3
100
AcDbLine
 10
691.628895950391
 20
645.323902417793
 11
684.892748670027
 21
645.323902417793
  0
LINE
  5
C3
100
AcDbEntity
  8
1
  6
CONTINUOUS
 62
           3
100
AcDbLine
 10
691.796826937658
 20
643.111781205662
 11
691.628895950391
 21
645.323902417793
  0
LINE
  5
C2
100
AcDbEntity
  8
1
  6
CONTINUOUS
 62
           3
100
AcDbLine
 10
693.826509100727
 20
643.111781205662
 11
691.796826937658
 21
643.111781205662
  0
LINE
  5
C1
100
AcDbEntity
  8
1
  6
CONTINUOUS
 62
           3
100
AcDbLine
 10
692.818923176965
 20
656.38450847832
 11
693.826509100727
 21
643.111781205662
  0
LINE
  5
C0
100
AcDbEntity
  8
1
  6
CONTINUOUS
 62
           3
100
AcDbLine
 10
688.77347691399
 20
656.38450847832
 11
692.818923176965
 21
656.38450847832
  0
LINE
  5
BF
100
AcDbEntity
  8
1
  6
CONTINUOUS
 62
           3
100
AcDbLine
 10
681.262046635093
 20
643.111781205662
 11
688.77347691399
 21
656.38450847832
  0
LINE
  5
BE
100
AcDbEntity
  8
1
  6
CONTINUOUS
 62
           3
100
AcDbLine
 10
668.278768754059
 20
643.111781205662
 11
666.184691676499
 21
643.111781205662
  0
LINE
  5
BD
100
AcDbEntity
  8
1
  6
CONTINUOUS
 62
           3
100
AcDbLine
 10
671.084771050988
 20
654.564485538598
 11
668.278768754059
 21
643.111781205662
  0
LINE
  5
BC
100
AcDbEntity
  8
1
  6
CONTINUOUS
 62
           3
100
AcDbLine
 10
671.725319317498
 20
652.905394629535
 11
671.084771050988
 21
654.564485538598
  0
LINE
  5
BB
100
AcDbEntity
  8
1
  6
CONTINUOUS
 62
           3
100
AcDbLine
 10
675.506475653208
 20
643.111781205662
 11
671.725319317498
 21
652.905394629535
  0
LINE
  5
BA
100
AcDbEntity
  8
1
  6
CONTINUOUS
 62
           3
100
AcDbLine
 10
678.749154141977
 20
643.111781205662
 11
675.506475653208
 21
643.111781205662
  0
LINE
  5
B9
100
AcDbEntity
  8
1
  6
CONTINUOUS
 62
           3
100
AcDbLine
 10
682.001076319597
 20
656.38450847832
 11
678.749154141977
 21
643.111781205662
  0
LINE
  5
B8
100
AcDbEntity
  8
1
  6
CONTINUOUS
 62
           3
100
AcDbLine
 10
679.906999241983
 20
656.38450847832
 11
682.001076319597
 21
656.38450847832
  0
LINE
  5
B7
100
AcDbEntity
  8
1
  6
CONTINUOUS
 62
           3
100
AcDbLine
 10
677.06156733663
 20
644.770872114746
 11
679.906999241983
 21
656.38450847832
  0
LINE
  5
B6
100
AcDbEntity
  8
1
  6
CONTINUOUS
 62
           3
100
AcDbLine
 10
672.577729470355
 20
656.38450847832
 11
677.06156733663
 21
644.770872114746
  0
LINE
  5
B5
100
AcDbEntity
  8
1
  6
CONTINUOUS
 62
           3
100
AcDbLine
 10
669.436613854014
 20
656.38450847832
 11
672.577729470355
 21
656.38450847832
  0
LINE
  5
B4
100
AcDbEntity
  8
1
  6
CONTINUOUS
 62
           3
100
AcDbLine
 10
666.184691676499
 20
643.111781205662
 11
669.436613854014
 21
656.38450847832
  0
LINE
  5
B3
100
AcDbEntity
  8
1
  6
CONTINUOUS
 62
           3
100
AcDbLine
 10
666.923721360898
 20
656.38450847832
 11
664.829644283334
 21
656.38450847832
  0
LINE
  5
B2
100
AcDbEntity
  8
1
  6
CONTINUOUS
 62
           3
100
AcDbLine
 10
664.829644283334
 20
656.38450847832
 11
661.577722105769
 21
643.111781205662
  0
LINE
  5
B1
100
AcDbEntity
  8
1
  6
CONTINUOUS
 62
           3
100
AcDbLine
 10
663.671799183329
 20
643.111781205662
 11
666.923721360898
 21
656.38450847832
  0
LINE
  5
B0
100
AcDbEntity
  8
1
  6
CONTINUOUS
 62
           3
100
AcDbLine
 10
661.577722105769
 20
643.111781205662
 11
663.671799183329
 21
643.111781205662
  0
LINE
  5
AF
100
AcDbEntity
  8
1
  6
CONTINUOUS
 62
           3
100
AcDbLine
 10
659.084501950522
 20
651.739053932891
 11
661.178579028048
 21
651.739053932891
  0
LINE
  5
AE
100
AcDbEntity
  8
1
  6
CONTINUOUS
 62
           3
100
AcDbLine
 10
658.054726594372
 20
647.536023629844
 11
657.512739564605
 21
645.323902417793
  0
LINE
  5
AD
100
AcDbEntity
  8
1
  6
CONTINUOUS
 62
           3
100
AcDbLine
 10
653.866572438972
 20
647.536023629844
 11
658.054726594372
 21
647.536023629844
  0
LINE
  5
AC
100
AcDbEntity
  8
1
  6
CONTINUOUS
 62
           3
100
AcDbLine
 10
654.408559468619
 20
649.748144842033
 11
653.866572438972
 21
647.536023629844
  0
LINE
  5
AB
100
AcDbEntity
  8
1
  6
CONTINUOUS
 62
           3
100
AcDbLine
 10
660.690790701425
 20
649.748144842033
 11
659.064829612653
 21
643.111781205662
  0
LINE
  5
AA
100
AcDbEntity
  8
1
  6
CONTINUOUS
 62
           3
100
AcDbLine
 10
660.690790701425
 20
649.748144842033
 11
654.408559468619
 21
649.748144842033
  0
LINE
  5
A9
100
AcDbEntity
  8
1
  6
CONTINUOUS
 62
           3
100
AcDbLine
 10
649.136431254276
 20
645.323902417793
 11
651.304379372603
 21
654.172387266269
  0
LINE
  5
A8
100
AcDbEntity
  8
1
  6
CONTINUOUS
 62
           3
100
AcDbLine
 10
651.304379372603
 20
654.172387266269
 11
659.6806876829
 21
654.172387266269
  0
LINE
  5
A7
100
AcDbEntity
  8
1
  6
CONTINUOUS
 62
           3
100
AcDbLine
 10
659.6806876829
 20
654.172387266269
 11
659.084501950522
 21
651.739053932891
  0
LINE
  5
A6
100
AcDbEntity
  8
1
  6
CONTINUOUS
 62
           3
100
AcDbLine
 10
657.512739564605
 20
645.323902417793
 11
649.136431254276
 21
645.323902417793
  0
LINE
  5
A5
100
AcDbEntity
  8
1
  6
CONTINUOUS
 62
           3
100
AcDbLine
 10
659.064829612653
 20
643.111781205662
 11
646.50036714704
 21
643.111781205662
  0
LINE
  5
A4
100
AcDbEntity
  8
1
  6
CONTINUOUS
 62
           3
100
AcDbLine
 10
662.316751790175
 20
656.38450847832
 11
661.178579028048
 21
651.739053932891
  0
LINE
  5
A3
100
AcDbEntity
  8
1
  6
CONTINUOUS
 62
           3
100
AcDbLine
 10
649.752289324584
 20
656.38450847832
 11
662.316751790175
 21
656.38450847832
  0
LINE
  5
A2
100
AcDbEntity
  8
1
  6
CONTINUOUS
 62
           3
100
AcDbLine
 10
646.50036714704
 20
643.111781205662
 11
649.752289324584
 21
656.38450847832
  0
LINE
  5
A1
100
AcDbEntity
  8
1
  6
CONTINUOUS
 62
           3
100
AcDbLine
 10
643.987474654055
 20
643.111781205662
 11
647.239396831465
 21
656.38450847832
  0
LINE
  5
A0
100
AcDbEntity
  8
1
  6
CONTINUOUS
 62
           3
100
AcDbLine
 10
641.893397576336
 20
643.111781205662
 11
643.987474654055
 21
643.111781205662
  0
LINE
  5
9F
100
AcDbEntity
  8
1
  6
CONTINUOUS
 62
           3
100
AcDbLine
 10
645.145319753901
 20
656.38450847832
 11
641.893397576336
 21
643.111781205662
  0
LINE
  5
9E
100
AcDbEntity
  8
1
  6
CONTINUOUS
 62
           3
100
AcDbLine
 10
647.239396831465
 20
656.38450847832
 11
645.145319753901
 21
656.38450847832
  0
LINE
  5
9D
100
AcDbEntity
  8
1
  6
CONTINUOUS
 62
           3
100
AcDbLine
 10
628.910119695298
 20
643.111781205662
 11
629.994093754409
 21
647.536023629844
  0
LINE
  5
9C
100
AcDbEntity
  8
1
  6
CONTINUOUS
 62
           3
100
AcDbLine
 10
626.816042617622
 20
643.111781205662
 11
628.910119695298
 21
643.111781205662
  0
LINE
  5
9B
100
AcDbEntity
  8
1
  6
CONTINUOUS
 62
           3
100
AcDbLine
 10
640.328223469318
 20
646.979895810782
 11
639.380505083205
 21
643.111781205662
  0
LINE
  5
9A
100
AcDbEntity
  8
1
  6
CONTINUOUS
 62
           3
100
AcDbLine
 10
631.620054843184
 20
654.172387266269
 11
630.536080784001
 21
649.748144842033
  0
LINE
  5
99
100
AcDbEntity
  8
1
  6
CONTINUOUS
 62
           3
100
AcDbLine
 10
639.996363153703
 20
654.172387266269
 11
631.620054843184
 21
654.172387266269
  0
LINE
  5
98
100
AcDbEntity
  8
1
  6
CONTINUOUS
 62
           3
100
AcDbLine
 10
638.912389094381
 20
649.748144842033
 11
639.996363153703
 21
654.172387266269
  0
LINE
  5
97
100
AcDbEntity
  8
1
  6
CONTINUOUS
 62
           3
100
AcDbLine
 10
630.536080784001
 20
649.748144842033
 11
638.912389094381
 21
649.748144842033
  0
LINE
  5
96
100
AcDbEntity
  8
1
  6
CONTINUOUS
 62
           3
100
AcDbLine
 10
638.370402064938
 20
647.536023629844
 11
629.994093754409
 21
647.536023629844
  0
LINE
  5
95
100
AcDbEntity
  8
1
  6
CONTINUOUS
 62
           3
100
AcDbLine
 10
637.286428005566
 20
643.111781205662
 11
638.370402064938
 21
647.536023629844
  0
LINE
  5
94
100
AcDbEntity
  8
1
  6
CONTINUOUS
 62
           3
100
AcDbLine
 10
639.380505083205
 20
643.111781205662
 11
637.286428005566
 21
643.111781205662
  0
LINE
  5
93
100
AcDbEntity
  8
1
  6
CONTINUOUS
 62
           3
100
AcDbLine
 10
642.632427260738
 20
656.38450847832
 11
640.764903150884
 21
648.762204858332
  0
LINE
  5
92
100
AcDbEntity
  8
1
  6
CONTINUOUS
 62
           3
100
AcDbLine
 10
630.067964795158
 20
656.38450847832
 11
642.632427260738
 21
656.38450847832
  0
LINE
  5
91
100
AcDbEntity
  8
1
  6
CONTINUOUS
 62
           3
100
AcDbLine
 10
630.067964795158
 20
656.38450847832
 11
626.816042617622
 21
643.111781205662
  0
LINE
  5
90
100
AcDbEntity
  8
1
  6
CONTINUOUS
 62
           3
100
AcDbLine
 10
614.374751766132
 20
645.323902417793
 11
616.542699884474
 21
654.172387266269
  0
LINE
  5
8F
100
AcDbEntity
  8
1
  6
CONTINUOUS
 62
           3
100
AcDbLine
 10
616.542699884474
 20
654.172387266269
 11
624.919008194964
 21
654.172387266269
  0
LINE
  5
8E
100
AcDbEntity
  8
1
  6
CONTINUOUS
 62
           3
100
AcDbLine
 10
624.919008194964
 20
654.172387266269
 11
622.751060076487
 21
645.323902417793
  0
LINE
  5
8D
100
AcDbEntity
  8
1
  6
CONTINUOUS
 62
           3
100
AcDbLine
 10
622.751060076487
 20
645.323902417793
 11
614.374751766132
 21
645.323902417793
  0
LINE
  5
8C
100
AcDbEntity
  8
1
  6
CONTINUOUS
 62
           3
100
AcDbLine
 10
624.303150124491
 20
643.111781205662
 11
611.738687658966
 21
643.111781205662
  0
LINE
  5
8B
100
AcDbEntity
  8
1
  6
CONTINUOUS
 62
           3
100
AcDbLine
 10
627.555072302166
 20
656.38450847832
 11
624.303150124491
 21
643.111781205662
  0
LINE
  5
8A
100
AcDbEntity
  8
1
  6
CONTINUOUS
 62
           3
100
AcDbLine
 10
614.990609836448
 20
656.38450847832
 11
627.555072302166
 21
656.38450847832
  0
LINE
  5
89
100
AcDbEntity
  8
1
  6
CONTINUOUS
 62
           3
100
AcDbLine
 10
611.738687658966
 20
643.111781205662
 11
614.990609836448
 21
656.38450847832
  0
LINE
  5
88
100
AcDbEntity
  8
1
  6
CONTINUOUS
 62
           3
100
AcDbLine
 10
755.329503152207
 20
600.0
 11
702.738701733397
 21
600.0
  0
LINE
  5
87
100
AcDbEntity
  8
1
  6
CONTINUOUS
 62
           3
100
AcDbLine
 10
752.928830785688
 20
606.19393939391
 11
710.119681233515
 21
606.19393939391
  0
LINE
  5
86
100
AcDbEntity
  8
1
  6
CONTINUOUS
 62
           3
100
AcDbLine
 10
752.928830785688
 20
606.19393939391
 11
755.329503152207
 21
600.0
  0
LINE
  5
85
100
AcDbEntity
  8
1
  6
CONTINUOUS
 62
           3
100
AcDbLine
 10
745.686830708906
 20
624.878917066824
 11
742.906977584949
 21
632.051175145079
  0
LINE
  5
84
100
AcDbEntity
  8
1
  6
CONTINUOUS
 62
           3
100
AcDbLine
 10
751.284056889192
 20
632.051175145079
 11
745.686830708906
 21
624.878917066824
  0
LINE
  5
83
100
AcDbEntity
  8
1
  6
CONTINUOUS
 62
           3
100
AcDbLine
 10
755.32950315225
 20
632.051175145079
 11
751.284056889192
 21
632.051175145079
  0
LINE
  5
82
100
AcDbEntity
  8
1
  6
CONTINUOUS
 62
           3
100
AcDbLine
 10
747.029273107168
 20
621.415301218603
 11
755.32950315225
 21
632.051175145079
  0
LINE
  5
81
100
AcDbEntity
  8
1
  6
CONTINUOUS
 62
           3
100
AcDbLine
 10
751.899971200172
 20
608.848484848477
 11
747.029273107168
 21
621.415301218603
  0
LINE
  5
80
100
AcDbEntity
  8
1
  6
CONTINUOUS
 62
           3
100
AcDbLine
 10
747.854524937124
 20
608.848484848477
 11
751.899971200172
 21
608.848484848477
  0
LINE
  5
7F
100
AcDbEntity
  8
1
  6
CONTINUOUS
 62
           3
100
AcDbLine
 10
744.32626924244
 20
617.951685370502
 11
747.854524937124
 21
608.848484848477
  0
LINE
  5
7E
100
AcDbEntity
  8
1
  6
CONTINUOUS
 62
           3
100
AcDbLine
 10
737.222136662338
 20
608.848484848477
 11
744.32626924244
 21
617.951685370502
  0
LINE
  5
7D
100
AcDbEntity
  8
1
  6
CONTINUOUS
 62
           3
100
AcDbLine
 10
733.176690399341
 20
608.848484848477
 11
737.222136662338
 21
608.848484848477
  0
LINE
  5
7C
100
AcDbEntity
  8
1
  6
CONTINUOUS
 62
           3
100
AcDbLine
 10
742.983826844131
 20
621.415301218661
 11
733.176690399341
 21
608.848484848477
  0
LINE
  5
7B
100
AcDbEntity
  8
1
  6
CONTINUOUS
 62
           3
100
AcDbLine
 10
738.861531321934
 20
632.051175145079
 11
742.983826844131
 21
621.415301218661
  0
LINE
  5
7A
100
AcDbEntity
  8
1
  6
CONTINUOUS
 62
           3
100
AcDbLine
 10
742.906977584949
 20
632.051175145079
 11
738.861531321934
 21
632.051175145079
  0
LINE
  5
79
100
AcDbEntity
  8
1
  6
CONTINUOUS
 62
           3
100
AcDbLine
 10
725.878253440889
 20
632.051175145079
 11
720.643060746967
 21
632.051175145079
  0
LINE
  5
78
100
AcDbEntity
  8
1
  6
CONTINUOUS
 62
           3
100
AcDbLine
 10
721.277386577538
 20
613.272727272797
 11
725.878253440889
 21
632.051175145079
  0
LINE
  5
77
100
AcDbEntity
  8
1
  6
CONTINUOUS
 62
           3
100
AcDbLine
 10
726.51257927149
 20
613.272727272797
 11
721.277386577538
 21
613.272727272797
  0
LINE
  5
76
100
AcDbEntity
  8
1
  6
CONTINUOUS
 62
           3
100
AcDbLine
 10
731.113446134885
 20
632.051175145079
 11
726.51257927149
 21
613.272727272797
  0
LINE
  5
75
100
AcDbEntity
  8
1
  6
CONTINUOUS
 62
           3
100
AcDbLine
 10
736.348638828808
 20
632.051175145079
 11
731.113446134885
 21
632.051175145079
  0
LINE
  5
74
100
AcDbEntity
  8
1
  6
CONTINUOUS
 62
           3
100
AcDbLine
 10
730.6637979062
 20
608.848484848477
 11
736.348638828808
 21
632.051175145079
  0
LINE
  5
73
100
AcDbEntity
  8
1
  6
CONTINUOUS
 62
           3
100
AcDbLine
 10
714.958219824279
 20
608.848484848477
 11
730.6637979062
 21
608.848484848477
  0
LINE
  5
72
100
AcDbEntity
  8
1
  6
CONTINUOUS
 62
           3
100
AcDbLine
 10
720.643060746967
 20
632.051175145079
 11
714.958219824279
 21
608.848484848477
  0
LINE
  5
71
100
AcDbEntity
  8
1
  6
CONTINUOUS
 62
           3
100
AcDbLine
 10
713.301425922338
 20
643.111781205662
 11
702.738701733397
 21
600.0
  0
LINE
  5
70
100
AcDbEntity
  8
1
  6
CONTINUOUS
 62
           3
100
AcDbLine
 10
719.164841739606
 20
643.111781205662
 11
713.301425922338
 21
643.111781205662
  0
LINE
  5
6F
100
AcDbEntity
  8
1
  6
CONTINUOUS
 62
           3
100
AcDbLine
 10
710.119681233515
 20
606.19393939391
 11
719.164841739606
 21
643.111781205662
  0
LINE
  5
6E
100
AcDbEntity
  8
1
  6
CONTINUOUS
 62
           3
100
AcDbLine
 10
575.0
 20
600.0
 11
582.852789041055
 21
632.051175145079
  0
LINE
  5
6D
100
AcDbEntity
  8
1
  6
CONTINUOUS
 62
           3
100
AcDbLine
 10
582.852789041055
 20
632.051175145079
 11
589.135020273752
 21
632.051175145079
  0
LINE
  5
6C
100
AcDbEntity
  8
1
  6
CONTINUOUS
 62
           3
100
AcDbLine
 10
589.135020273752
 20
632.051175145079
 11
582.366205292063
 21
604.424242424182
  0
LINE
  5
6B
100
AcDbEntity
  8
1
  6
CONTINUOUS
 62
           3
100
AcDbLine
 10
582.366205292063
 20
604.424242424182
 11
587.601397985942
 21
604.424242424182
  0
LINE
  5
6A
100
AcDbEntity
  8
1
  6
CONTINUOUS
 62
           3
100
AcDbLine
 10
587.601397985942
 20
604.424242424182
 11
595.725180541824
 21
637.581478175405
  0
LINE
  5
69
100
AcDbEntity
  8
1
  6
CONTINUOUS
 62
           3
100
AcDbLine
 10
595.725180541824
 20
637.581478175405
 11
578.03408469729
 21
637.581478175405
  0
LINE
  5
68
100
AcDbEntity
  8
1
  6
CONTINUOUS
 62
           3
100
AcDbLine
 10
578.03408469729
 20
637.581478175405
 11
579.389052271275
 21
643.111781205662
  0
LINE
  5
67
100
AcDbEntity
  8
1
  6
CONTINUOUS
 62
           3
100
AcDbLine
 10
579.389052271275
 20
643.111781205662
 11
603.362379348568
 21
643.111781205662
  0
LINE
  5
66
100
AcDbEntity
  8
1
  6
CONTINUOUS
 62
           3
100
AcDbLine
 10
603.362379348568
 20
643.111781205662
 11
592.799655159648
 21
600.0
  0
LINE
  5
65
100
AcDbEntity
  8
1
  6
CONTINUOUS
 62
           3
100
AcDbLine
 10
592.799655159648
 20
600.0
 11
575.0
 21
600.0
  0
LINE
  5
64
100
AcDbEntity
  8
1
  6
CONTINUOUS
 62
           3
100
AcDbLine
 10
596.987809314774
 20
600.0
 11
604.840598355768
 21
632.051175145079
  0
LINE
  5
63
100
AcDbEntity
  8
1
  6
CONTINUOUS
 62
           3
100
AcDbLine
 10
604.840598355768
 20
632.051175145079
 11
611.122829588578
 21
632.051175145079
  0
LINE
  5
62
100
AcDbEntity
  8
1
  6
CONTINUOUS
 62
           3
100
AcDbLine
 10
611.122829588578
 20
632.051175145079
 11
604.354014606783
 21
604.424242424182
  0
LINE
  5
61
100
AcDbEntity
  8
1
  6
CONTINUOUS
 62
           3
100
AcDbLine
 10
604.354014606783
 20
604.424242424182
 11
609.589207300767
 21
604.424242424182
  0
LINE
  5
60
100
AcDbEntity
  8
1
  6
CONTINUOUS
 62
           3
100
AcDbLine
 10
609.589207300767
 20
604.424242424182
 11
616.358022282573
 21
632.051175145079
  0
LINE
  5
5F
100
AcDbEntity
  8
1
  6
CONTINUOUS
 62
           3
100
AcDbLine
 10
614.787464474364
 20
600.0
 11
596.987809314774
 21
600.0
  0
LINE
  5
5E
100
AcDbEntity
  8
1
  6
CONTINUOUS
 62
           3
100
AcDbLine
 10
616.358022282573
 20
632.051175145079
 11
622.640253515379
 21
632.051175145079
  0
LINE
  5
5D
100
AcDbEntity
  8
1
  6
CONTINUOUS
 62
           3
100
AcDbLine
 10
622.640253515379
 20
632.051175145079
 11
614.787464474364
 21
600.0
  0
LINE
  5
5C
100
AcDbEntity
  8
1
  6
CONTINUOUS
 62
           3
100
AcDbLine
 10
643.581024291314
 20
632.051175145079
 11
626.828407670542
 21
632.051175145079
  0
LINE
  5
5B
100
AcDbEntity
  8
1
  6
CONTINUOUS
 62
           3
100
AcDbLine
 10
626.828407670542
 20
632.051175145079
 11
622.227540807151
 21
613.272727272797
  0
LINE
  5
5A
100
AcDbEntity
  8
1
  6
CONTINUOUS
 62
           3
100
AcDbLine
 10
622.227540807151
 20
613.272727272797
 11
632.697926195116
 21
613.272727272797
  0
LINE
  5
59
100
AcDbEntity
  8
1
  6
CONTINUOUS
 62
           3
100
AcDbLine
 10
632.697926195116
 20
613.272727272797
 11
630.529978076698
 21
604.424242424182
  0
LINE
  5
58
100
AcDbEntity
  8
1
  6
CONTINUOUS
 62
           3
100
AcDbLine
 10
630.529978076698
 20
604.424242424182
 11
620.059592688787
 21
604.424242424182
  0
LINE
  5
57
100
AcDbEntity
  8
1
  6
CONTINUOUS
 62
           3
100
AcDbLine
 10
620.059592688787
 20
604.424242424182
 11
618.97561862948
 21
600.0
  0
LINE
  5
56
100
AcDbEntity
  8
1
  6
CONTINUOUS
 62
           3
100
AcDbLine
 10
618.97561862948
 20
600.0
 11
635.728235250303
 21
600.0
  0
LINE
  5
55
100
AcDbEntity
  8
1
  6
CONTINUOUS
 62
           3
100
AcDbLine
 10
635.728235250303
 20
600.0
 11
640.064131487226
 21
617.696969696953
  0
LINE
  5
54
100
AcDbEntity
  8
1
  6
CONTINUOUS
 62
           3
100
AcDbLine
 10
640.064131487226
 20
617.696969696953
 11
629.593746099163
 21
617.696969696953
  0
LINE
  5
53
100
AcDbEntity
  8
1
  6
CONTINUOUS
 62
           3
100
AcDbLine
 10
629.593746099163
 20
617.696969696953
 11
632.026664844176
 21
627.626932720839
  0
LINE
  5
52
100
AcDbEntity
  8
1
  6
CONTINUOUS
 62
           3
100
AcDbLine
 10
632.026664844176
 20
627.626932720839
 11
642.497050232156
 21
627.626932720839
  0
LINE
  5
51
100
AcDbEntity
  8
1
  6
CONTINUOUS
 62
           3
100
AcDbLine
 10
642.497050232156
 20
627.626932720839
 11
643.581024291314
 21
632.051175145079
  0
LINE
  5
50
100
AcDbEntity
  8
1
  6
CONTINUOUS
 62
           3
100
AcDbLine
 10
661.811859919322
 20
620.990569084413
 11
664.521795067252
 21
632.051175145079
  0
LINE
  5
4F
100
AcDbEntity
  8
1
  6
CONTINUOUS
 62
           3
100
AcDbLine
 10
664.521795067252
 20
632.051175145079
 11
647.769178446531
 21
632.051175145079
  0
LINE
  5
4E
100
AcDbEntity
  8
1
  6
CONTINUOUS
 62
           3
100
AcDbLine
 10
647.769178446531
 20
632.051175145079
 11
639.916389405538
 21
600.0
  0
LINE
  5
4D
100
AcDbEntity
  8
1
  6
CONTINUOUS
 62
           3
100
AcDbLine
 10
639.916389405538
 20
600.0
 11
656.669006026292
 21
600.0
  0
LINE
  5
4C
100
AcDbEntity
  8
1
  6
CONTINUOUS
 62
           3
100
AcDbLine
 10
656.669006026292
 20
600.0
 11
659.378941174266
 21
611.060606060608
  0
LINE
  5
4B
100
AcDbEntity
  8
1
  6
CONTINUOUS
 62
           3
100
AcDbLine
 10
659.378941174266
 20
611.060606060608
 11
653.096709941478
 21
611.060606060608
  0
LINE
  5
4A
100
AcDbEntity
  8
1
  6
CONTINUOUS
 62
           3
100
AcDbLine
 10
653.096709941478
 20
611.060606060608
 11
651.470748852691
 21
604.424242424182
  0
LINE
  5
49
100
AcDbEntity
  8
1
  6
CONTINUOUS
 62
           3
100
AcDbLine
 10
651.470748852691
 20
604.424242424182
 11
647.282594697488
 21
604.424242424182
  0
LINE
  5
48
100
AcDbEntity
  8
1
  6
CONTINUOUS
 62
           3
100
AcDbLine
 10
647.282594697488
 20
604.424242424182
 11
652.967435620118
 21
627.626932720839
  0
LINE
  5
47
100
AcDbEntity
  8
1
  6
CONTINUOUS
 62
           3
100
AcDbLine
 10
652.967435620118
 20
627.626932720839
 11
657.15558977531
 21
627.626932720839
  0
LINE
  5
46
100
AcDbEntity
  8
1
  6
CONTINUOUS
 62
           3
100
AcDbLine
 10
657.15558977531
 20
627.626932720839
 11
655.529628686516
 21
620.990569084413
  0
LINE
  5
45
100
AcDbEntity
  8
1
  6
CONTINUOUS
 62
           3
100
AcDbLine
 10
655.529628686516
 20
620.990569084413
 11
661.811859919322
 21
620.990569084413
  0
LINE
  5
44
100
AcDbEntity
  8
1
  6
CONTINUOUS
 62
           3
100
AcDbLine
 10
660.857160181473
 20
600.0
 11
667.139391414261
 21
600.0
  0
LINE
  5
43
100
AcDbEntity
  8
1
  6
CONTINUOUS
 62
           3
100
AcDbLine
 10
677.609776802336
 20
600.0
 11
685.462565843351
 21
632.051175145079
  0
LINE
  5
42
100
AcDbEntity
  8
1
  6
CONTINUOUS
 62
           3
100
AcDbLine
 10
671.327545569439
 20
600.0
 11
674.711953060334
 21
613.813466360341
  0
LINE
  5
41
100
AcDbEntity
  8
1
  6
CONTINUOUS
 62
           3
100
AcDbLine
 10
667.139391414261
 20
600.0
 11
670.523798905146
 21
613.813466360341
  0
LINE
  5
40
100
AcDbEntity
  8
1
  6
CONTINUOUS
 62
           3
100
AcDbLine
 10
668.709949222466
 20
632.051175145079
 11
660.857160181473
 21
600.0
  0
LINE
  5
3F
100
AcDbEntity
  8
1
  6
CONTINUOUS
 62
           3
100
AcDbLine
 10
685.462565843351
 20
632.051175145079
 11
679.180334610435
 21
632.051175145079
  0
LINE
  5
3E
100
AcDbEntity
  8
1
  6
CONTINUOUS
 62
           3
100
AcDbLine
 10
681.797930957462
 20
600.0
 11
698.55054757827
 21
600.0
  0
LINE
  5
3D
100
AcDbEntity
  8
1
  6
CONTINUOUS
 62
           3
100
AcDbLine
 10
693.352290404568
 20
604.424242424182
 11
689.164136249467
 21
604.424242424182
  0
LINE
  5
3C
100
AcDbEntity
  8
1
  6
CONTINUOUS
 62
           3
100
AcDbLine
 10
689.650719998459
 20
632.051175145079
 11
681.797930957462
 21
600.0
  0
LINE
  5
3B
100
AcDbEntity
  8
1
  6
CONTINUOUS
 62
           3
100
AcDbLine
 10
689.164136249467
 20
604.424242424182
 11
694.848977172042
 21
627.626932720839
  0
LINE
  5
3A
100
AcDbEntity
  8
1
  6
CONTINUOUS
 62
           3
100
AcDbLine
 10
706.403336619289
 20
632.051175145079
 11
689.650719998459
 21
632.051175145079
  0
LINE
  5
39
100
AcDbEntity
  8
1
  6
CONTINUOUS
 62
           3
100
AcDbLine
 10
694.848977172042
 20
627.626932720839
 11
699.037131327292
 21
627.626932720839
  0
LINE
  5
38
100
AcDbEntity
  8
1
  6
CONTINUOUS
 62
           3
100
AcDbLine
 10
699.037131327292
 20
627.626932720839
 11
693.352290404568
 21
604.424242424182
  0
LINE
  5
37
100
AcDbEntity
  8
1
  6
CONTINUOUS
 62
           3
100
AcDbLine
 10
706.403336619289
 20
632.051175145079
 11
698.55054757827
 21
600.0
  0
LINE
  5
36
100
AcDbEntity
  8
1
  6
CONTINUOUS
 62
           3
100
AcDbLine
 10
674.992180455331
 20
632.051175145079
 11
668.709949222466
 21
632.051175145079
  0
LINE
  5
35
100
AcDbEntity
  8
1
  6
CONTINUOUS
 62
           3
100
AcDbLine
 10
671.327545569439
 20
600.0
 11
677.609776802336
 21
600.0
  0
LINE
  5
34
100
AcDbEntity
  8
1
  6
CONTINUOUS
 62
           3
100
AcDbLine
 10
670.523798905146
 20
613.813466360341
 11
674.711953060334
 21
613.813466360341
  0
LINE
  5
33
100
AcDbEntity
  8
1
  6
CONTINUOUS
 62
           3
100
AcDbLine
 10
671.607772964315
 20
618.237708784527
 11
675.795927119554
 21
618.237708784527
  0
LINE
  5
32
100
AcDbEntity
  8
1
  6
CONTINUOUS
 62
           3
100
AcDbLine
 10
671.607772964315
 20
618.237708784527
 11
674.992180455331
 21
632.051175145079
  0
LINE
  5
31
100
AcDbEntity
  8
1
  6
CONTINUOUS
 62
           3
100
AcDbLine
 10
675.795927119554
 20
618.237708784527
 11
679.180334610435
 21
632.051175145079
  0
LINE
  5
30
100
AcDbEntity
  8
1
  6
CONTINUOUS
 62
           3
100
AcDbLine
 10
640.764903150884
 20
648.762204858332
 11
640.032820381937
 21
647.978447872363
  0
LINE
  5
2F
100
AcDbEntity
  8
1
  6
CONTINUOUS
 62
           3
100
AcDbLine
 10
640.328223469318
 20
646.979895810782
 11
640.032820381937
 21
647.978447872363
  0
ENDBLK
  5
E3
100
AcDbEntity
  8
0
100
AcDbBlockEnd
  0
BLOCK
  5
2A
100
AcDbEntity
  8
0
100
AcDbBlockBegin
  2
WANNE_SMART_LINE_32
 70
           0
 10
0.0
 20
0.0
 30
0.0
  3
WANNE_SMART_LINE_32
  1

  0
SPLINE
  5
103
100
AcDbEntity
  8
1
  6
CONTINUOUS
 62
           7
100
AcDbSpline
210
0.0
220
0.0
230
1.0
 70
           0
 71
           3
 72
          41
 73
          38
 74
          77
 42
0.00000000001
 43
0.00000000001
 44
0.00000000001
 40
-1.774703148030909
 40
-0.1491110169696697
 40
1.4764811140915197
 40
3.3442545556989027
 40
5.8688042616062344
 40
9.2453332459463322
 40
13.458047720742588
 40
18.410297395420528
 40
23.970225639106111
 40
29.980492803509485
 40
36.26745229035744
 40
42.647709713833919
 40
48.93466920068191
 40
54.944936365086178
 40
60.504864608772209
 40
65.45711428344967
 40
69.669828758245075
 40
73.046357742585883
 40
75.570907448493529
 40
77.438680890100471
 40
79.064273021160233
 40
80.932046462766991
 40
83.456596168674054
 40
86.833125153014606
 40
91.045839627811702
 40
95.998089302490627
 40
101.55801754617622
 40
107.56828471057858
 40
113.85524419742654
 40
120.23550162090245
 40
126.52246110775104
 40
132.53272827215483
 40
138.09265651583974
 40
143.0449061905187
 40
147.25762066531462
 40
150.63414964965455
 40
153.15869935556313
 40
155.02647279717127
 40
156.6520649282316
 40
158.27765705929284
 40
159.90324919035402
 10
987.17586330521794
 20
105.1457731396506
 30
0.0
 10
986.39247716432192
 20
106.5701522783704
 30
0.0
 10
984.58767479386711
 20
107.66312870068521
 30
0.0
 10
981.8431305416841
 20
108.7148169521284
 30
0.0
 10
978.14923087627608
 20
109.6640482151046
 30
0.0
 10
973.61204795997992
 20
110.48869825440831
 30
0.0
 10
968.36147394336808
 20
111.1573902892922
 30
0.0
 10
962.55531914643211
 20
111.64832088711179
 30
0.0
 10
956.36878044872992
 20
111.9452760023778
 30
0.0
 10
949.98920653774803
 20
112.0386649961824
 30
0.0
 10
943.60995343705895
 20
111.92546310946059
 30
0.0
 10
937.42436684356107
 20
111.60929560160361
 30
0.0
 10
931.619764755098
 20
111.100334922911
 30
0.0
 10
926.3712928495479
 20
110.41533915788089
 30
0.0
 10
921.83669296986795
 20
109.5766017529488
 30
0.0
 10
918.14575919182494
 20
108.61590274971
 30
0.0
 10
915.40449445391209
 20
107.55569570998109
 30
0.0
 10
913.60309529611595
 20
106.45711929915259
 30
0.0
 10
912.8241366947841
 20
105.0303140307383
 30
0.0
 10
913.60752283567695
 20
103.6059348920185
 30
0.0
 10
915.41232520613198
 20
102.51295846970351
 30
0.0
 10
918.15686945831408
 20
101.4612702182602
 30
0.0
 10
921.85076912372392
 20
100.5120389552843
 30
0.0
 10
926.38795204002008
 20
99.687388915980591
 30
0.0
 10
931.63852605663396
 20
99.018696881097185
 30
0.0
 10
937.44468085356789
 20
98.52776628327706
 30
0.0
 10
943.63121955127008
 20
98.230811168011087
 30
0.0
 10
950.01079346225197
 20
98.137422174206449
 30
0.0
 10
956.39004656293992
 20
98.250624060928089
 30
0.0
 10
962.57563315644006
 20
98.566791568785789
 30
0.0
 10
968.38023524489995
 20
99.075752247477567
 30
0.0
 10
973.62870715045096
 20
99.760748012508088
 30
0.0
 10
978.16330703013296
 20
100.5994854174405
 30
0.0
 10
981.85424080817506
 20
101.56018442067879
 30
0.0
 10
984.595505546087
 20
102.6203914604078
 30
0.0
 10
986.39690470388609
 20
103.7189678712367
 30
0.0
 10
987.17586330521794
 20
105.1457731396506
 30
0.0
 10
986.39247716432192
 20
106.5701522783704
 30
0.0
 11
986.81132477647463
 21
105.80858940419111
 31
0.0
 11
986.30532238191415
 21
106.49595476017433
 31
0.0
 11
985.62501042253791
 21
107.03492507976543
 31
0.0
 11
984.55347175853706
 21
107.61855889447347
 31
0.0
 11
983.41352702387553
 21
108.11305309675791
 31
0.0
 11
981.82486659819097
 21
108.66995656721761
 31
0.0
 11
980.19967828552024
 21
109.13713926785573
 31
0.0
 11
978.14045890660634
 21
109.6270844465547
 31
0.0
 11
976.06369558835286
 21
110.04310208815389
 31
0.0
 11
973.60657817520189
 21
110.45605382340044
 31
0.0
 11
971.13852119249475
 21
110.80371669663126
 31
0.0
 11
968.35821503745763
 21
111.12794969574118
 31
0.0
 11
965.57139107059947
 21
111.39330150774909
 31
0.0
 11
962.55341972734368
 21
111.62085023116185
 31
0.0
 11
959.5316495459108
 21
111.79345764267475
 31
0.0
 11
956.36792442390117
 21
111.91890905685577
 31
0.0
 11
953.20248725223416
 21
111.99162657999271
 31
0.0
 11
949.9892469343929
 21
112.01265093546898
 31
0.0
 11
946.77608740984124
 21
111.98164716951838
 31
0.0
 11
943.61089134682368
 21
111.89909894969892
 31
0.0
 11
940.44757110333569
 21
111.76382241035611
 31
0.0
 11
937.42635157040013
 21
111.58183097725562
 31
0.0
 11
934.40910149114279
 21
111.34491029545914
 31
0.0
 11
931.6231150803294
 21
111.07090459268517
 31
0.0
 11
928.84382931997902
 21
110.73803822945959
 31
0.0
 11
926.37686399329436
 21
110.38271187208031
 31
0.0
 11
923.92104095410218
 21
109.96213094309985
 31
0.0
 11
921.84557969734919
 21
109.53966540618897
 31
0.0
 11
919.78789189555869
 21
109.04332717575844
 31
0.0
 11
918.16416237224553
 21
108.5710993043438
 31
0.0
 11
916.57723920977321
 21
108.00926454219677
 31
0.0
 11
915.43883574683355
 21
107.51123234470114
 31
0.0
 11
914.3691148697369
 21
106.9242734166456
 31
0.0
 11
913.69048009691892
 21
106.38319281951416
 31
0.0
 11
913.18661492570686
 21
105.69425926310582
 31
0.0
 11
913.00589088470019
 21
105.03059627269509
 31
0.0
 11
913.18867522352571
 21
104.36749776619797
 31
0.0
 11
913.69467761808517
 21
103.68013241021461
 31
0.0
 11
914.37498957746106
 21
103.14116209062345
 31
0.0
 11
915.44652824146192
 21
102.55752827591533
 31
0.0
 11
916.58647297612288
 21
102.0630340736308
 31
0.0
 11
918.17513340180744
 21
101.50613060317106
 31
0.0
 11
919.80032171447874
 21
101.03894790253302
 31
0.0
 11
921.85954109339355
 21
100.54900272383416
 31
0.0
 11
923.93630441164714
 21
100.13298508223502
 31
0.0
 11
926.39342182479834
 21
99.720033346988501
 31
0.0
 11
928.8614788075065
 21
99.372370473757826
 31
0.0
 11
931.64178496254419
 21
99.048137474648058
 31
0.0
 11
934.42860892940189
 21
98.782785662640009
 31
0.0
 11
937.44658027265666
 21
98.555236939227072
 31
0.0
 11
940.46835045408898
 21
98.38262952771413
 31
0.0
 11
943.63207557609883
 21
98.257178113533115
 31
0.0
 11
946.79751274776595
 21
98.184460590396142
 31
0.0
 11
950.01075306560688
 21
98.163436234919843
 31
0.0
 11
953.22391259015785
 21
98.194440000870372
 31
0.0
 11
956.38910865317553
 21
98.276988220689859
 31
0.0
 11
959.55242889666465
 21
98.41226476003294
 31
0.0
 11
962.57364842960033
 21
98.594256193133589
 31
0.0
 11
965.59089850885675
 21
98.831176874929824
 31
0.0
 11
968.3768849196689
 21
99.10518257770353
 31
0.0
 11
971.15617068001882
 21
99.438048940929121
 31
0.0
 11
973.62313600670473
 21
99.793375298308675
 31
0.0
 11
976.07895904589805
 21
100.21395622728934
 31
0.0
 11
978.1544203026516
 21
100.63642176420026
 31
0.0
 11
980.212108104442
 21
101.13275999463067
 31
0.0
 11
981.83583762775447
 21
101.60498786604504
 31
0.0
 11
983.42276079022577
 21
102.16682262819191
 31
0.0
 11
984.56116425316588
 21
102.66485482568774
 31
0.0
 11
985.63088513026378
 21
103.25181375374343
 31
0.0
 11
986.30951990308267
 21
103.79289435087505
 31
0.0
 11
986.8133850742953
 21
104.48182790728336
 31
0.0
 11
986.98732047987539
 21
105.15783422389873
 31
0.0
 11
986.78417023477004
 21
105.85796270901031
 31
0.0
 11
986.58832369954598
 21
106.2140574936904
 31
0.0
 11
986.78417023476982
 21
105.85796270901048
 31
0.0
 11
986.98680540542011
 21
105.48952459812568
 31
0.0
 11
986.81132477647463
 21
105.80858940419111
 31
0.0
  0
CIRCLE
  5
102
100
AcDbEntity
  8
WANNE
  6
CONTINUOUS
 62
           7
100
AcDbCircle
 10
949.999999999995
 20
425.000000000001
 40
26.0
  0
CIRCLE
  5
101
100
AcDbEntity
  8
WANNE
  6
CONTINUOUS
 62
           7
100
AcDbCircle
 10
949.999999999995
 20
425.000000000001
 40
45.0
  0
ARC
  5
100
100
AcDbEntity
  8
1
  6
CONTINUOUS
 62
           7
100
AcDbCircle
 10
1200.814166143481
 20
236.255816277869
 40
600.00000000041
100
AcDbArc
 50
38.987238315796
 51
45.0
  0
ARC
  5
FF
100
AcDbEntity
  8
1
  6
CONTINUOUS
 62
           7
100
AcDbCircle
 10
466.000000000067
 20
424.999999999998
 40
299.999999999976
100
AcDbArc
 50
141.012761684207
 51
180.0
  0
ARC
  5
FE
100
AcDbEntity
  8
1
  6
CONTINUOUS
 62
           7
100
AcDbCircle
 10
1433.9999999999
 20
425.000000000001
 40
299.999999999999
100
AcDbArc
 50
-38.987238315791
 51
0.0
  0
ARC
  5
FD
100
AcDbEntity
  8
1
  6
CONTINUOUS
 62
           7
100
AcDbCircle
 10
734.037209668851
 20
425.000000000001
 40
305.0
100
AcDbArc
 50
90.0
 51
-90.0
  0
ARC
  5
FC
100
AcDbEntity
  8
1
  6
CONTINUOUS
 62
           7
100
AcDbCircle
 10
1280.918132337464
 20
330.00000000001
 40
399.999999999992
100
AcDbArc
 50
39.296480239186
 51
90.0
  0
ARC
  5
FB
100
AcDbEntity
  8
1
  6
CONTINUOUS
 62
           7
100
AcDbCircle
 10
1396.999999999954
 20
425.000000000031
 40
249.999999999939
100
AcDbArc
 50
5.739170477261
 51
39.296480239189
  0
ARC
  5
FA
100
AcDbEntity
  8
1
  6
CONTINUOUS
 62
           7
100
AcDbCircle
 10
1347.250628144525
 20
420.000000000036
 40
300.000000000037
100
AcDbArc
 50
-89.999999999991
 51
5.739170477259
  0
ARC
  5
F9
100
AcDbEntity
  8
1
  6
CONTINUOUS
 62
           7
100
AcDbCircle
 10
1255.466811942155
 20
319.999999999982
 40
500.000000000018
100
AcDbArc
 50
56.870961727588
 51
90.0
  0
ARC
  5
F8
100
AcDbEntity
  8
1
  6
CONTINUOUS
 62
           7
100
AcDbCircle
 10
1200.814166143481
 20
236.255816277869
 40
600.00000000041
100
AcDbArc
 50
45.0
 51
56.87096172758
  0
ARC
  5
F7
100
AcDbEntity
  8
1
  6
CONTINUOUS
 62
           7
100
AcDbCircle
 10
1433.9999999999
 20
425.000000000001
 40
299.999999999999
100
AcDbArc
 50
0.0
 51
38.987238315791
  0
ARC
  5
F6
100
AcDbEntity
  8
1
  6
CONTINUOUS
 62
           7
100
AcDbCircle
 10
1200.814166143002
 20
613.744183722497
 40
600.000000001012
100
AcDbArc
 50
-46.814955009523
 51
-38.987238315795
  0
ARC
  5
F5
100
AcDbEntity
  8
1
  6
CONTINUOUS
 62
           7
100
AcDbCircle
 10
1406.121209588142
 20
394.999999999999
 40
299.999999999999
100
AcDbArc
 50
-90.0
 51
-46.814955009533
  0
ARC
  5
F4
100
AcDbEntity
  8
1
  6
CONTINUOUS
 62
           7
100
AcDbCircle
 10
644.677811691684
 20
318.267942797791
 40
501.732078045998
100
AcDbArc
 50
89.98348456429
 51
127.663302759744
  0
ARC
  5
F3
100
AcDbEntity
  8
1
  6
CONTINUOUS
 62
           7
100
AcDbCircle
 10
699.185833856242
 20
236.255816278159
 40
600.000000000014
100
AcDbArc
 50
126.998495319037
 51
141.01276168421
  0
ARC
  5
F2
100
AcDbEntity
  8
1
  6
CONTINUOUS
 62
           7
100
AcDbCircle
 10
466.000000000067
 20
424.999999999998
 40
299.999999999976
100
AcDbArc
 50
180.0
 51
-141.012761684206
  0
ARC
  5
F1
100
AcDbEntity
  8
1
  6
CONTINUOUS
 62
           7
100
AcDbCircle
 10
699.18583385628
 20
613.744183721874
 40
600.000000000068
100
AcDbArc
 50
-141.012761684208
 51
-133.185044990467
  0
ARC
  5
F0
100
AcDbEntity
  8
1
  6
CONTINUOUS
 62
           7
100
AcDbCircle
 10
493.87879041184
 20
394.999999999961
 40
299.999999999962
100
AcDbArc
 50
-133.18504499047
 51
-90.0
  0
LINE
  5
EF
100
AcDbEntity
  8
1
  6
CONTINUOUS
 62
           7
100
AcDbLine
 10
1900.0
 20
425.000000000001
 11
1475.0
 21
0.0
  0
LINE
  5
EE
100
AcDbEntity
  8
1
  6
CONTINUOUS
 62
           7
100
AcDbLine
 10
1475.0
 20
0.0
 11
425.000000000001
 21
0.0
  0
LINE
  5
ED
100
AcDbEntity
  8
1
  6
CONTINUOUS
 62
           7
100
AcDbLine
 10
425.000000000001
 20
0.0
 11
0.0
 21
425.000000000001
  0
LINE
  5
EC
100
AcDbEntity
  8
1
  6
CONTINUOUS
 62
           7
100
AcDbLine
 10
0.0
 20
425.000000000001
 11
425.0
 21
850.0
  0
LINE
  5
EB
100
AcDbEntity
  8
1
  6
CONTINUOUS
 62
           7
100
AcDbLine
 10
425.0
 20
850.0
 11
1475.0
 21
850.0
  0
LINE
  5
EA
100
AcDbEntity
  8
1
  6
CONTINUOUS
 62
           7
100
AcDbLine
 10
1475.0
 20
850.0
 11
1900.0
 21
425.000000000001
  0
LINE
  5
E9
100
AcDbEntity
  8
MITTELLINIEN
  6
DOT_CENTER
 62
           3
100
AcDbLine
 10
1013.989954999999
 20
425.000000000001
 11
884.321980999987
 21
425.000000000001
  0
LINE
  5
E8
100
AcDbEntity
  8
MITTELLINIEN
  6
DOT_CENTER
 62
           3
100
AcDbLine
 10
950.0
 20
488.989955
 11
950.0
 21
359.321981
  0
LINE
  5
E7
100
AcDbEntity
  8
1
  6
CONTINUOUS
 62
           7
100
AcDbLine
 10
1406.121209588142
 20
95.0
 11
493.87879041184
 21
95.0
  0
LINE
  5
E6
100
AcDbEntity
  8
1
  6
CONTINUOUS
 62
           7
100
AcDbLine
 10
644.533188059124
 20
820.0
 11
1255.466811942155
 21
820.0
  0
LINE
  5
E5
100
AcDbEntity
  8
1
  6
CONTINUOUS
 62
           7
100
AcDbLine
 10
1280.918132337464
 20
730.0
 11
734.037209668851
 21
730.0
  0
LINE
  5
E4
100
AcDbEntity
  8
1
  6
CONTINUOUS
 62
           7
100
AcDbLine
 10
1347.250628144525
 20
120.000000000001
 11
734.037209668851
 21
120.000000000001
  0
ENDBLK
  5
104
100
AcDbEntity
  8
0
100
AcDbBlockEnd
  0
ENDSEC
  0
SECTION
  2
ENTITIES
  0
MTEXT
  5
108
100
AcDbEntity
  8
1
 62
           3
100
AcDbMText
 10
900.0
 20
375.000000000001
 30
0.0
 40
35.0
 41
0.0
 71
           3
 72
           1
  1
ø 52
  7
CONVERTER_1
  0
TEXT
  5
107
100
AcDbEntity
  8
1
 62
           2
100
AcDbText
 10
575.0
 20
515.0
 40
35.0
  1
Smart-Line 32
 41
0.71262
  7
CONVERTER_1
100
AcDbText
  0
INSERT
  5
2D
100
AcDbEntity
  8
0
100
AcDbBlockReference
  2
DLX
 10
0.0
 20
0.0
  0
INSERT
  5
2E
100
AcDbEntity
  8
0
100
AcDbBlockReference
  2
WANNE_SMART_LINE_32
 10
0.0
 20
0.0
  0
ENDSEC
  0
SECTION
  2
OBJECTS
  0
DICTIONARY
  5
19
100
AcDbDictionary
  3
ACAD_GROUP
350
1A
  3
ACAD_MLINESTYLE
350
1B
  0
DICTIONARY
  5
1A
102
{ACAD_REACTORS
330
19
102
}
100
AcDbDictionary
  0
DICTIONARY
  5
1B
102
{ACAD_REACTORS
330
19
102
}
100
AcDbDictionary
  3
STANDARD
350
1C
  0
MLINESTYLE
  5
1C
102
{ACAD_REACTORS
330
1B
102
}
100
AcDbMlineStyle
  2
STANDARD
 70
           0
  3

 62
           0
 51
90.0
 52
90.0
 71
           2
 49
0.5
 62
         256
  6
BYLAYER
 49
-0.5
 62
         256
  6
BYLAYER
  0
ENDSEC
  0
EOF
