  0
SECTION
  2
HEADER
  9
$ACADVER
  1
AC1014
  9
$ACADMAINTVER
 70
           0
  9
$DWGCODEPAGE
  3
ANSI_1252
  9
$INSBASE
 10
0.0
 20
0.0
 30
0.0
  9
$EXTMIN
 10
1.000000000000E+20
 20
1.000000000000E+20
 30
1.000000000000E+20
  9
$EXTMAX
 10
-1.000000000000E+20
 20
-1.000000000000E+20
 30
-1.000000000000E+20
  9
$LIMMIN
 10
0.0
 20
0.0
  9
$LIMMAX
 10
0.0
 20
0.0
  9
$ORTHOMODE
 70
           0
  9
$REGENMODE
 70
           1
  9
$FILLMODE
 70
           1
  9
$QTEXTMODE
 70
           0
  9
$MIRRTEXT
 70
           1
  9
$DRAGMODE
 70
           2
  9
$LTSCALE
 40
1.0
  9
$OSMODE
 70
           0
  9
$ATTMODE
 70
           1
  9
$TEXTSIZE
 40
0.2
  9
$TRACEWID
 40
0.05
  9
$TEXTSTYLE
  7
STANDARD
  9
$CLAYER
  8
0
  9
$CELTYPE
  6
CONTINUOUS
  9
$CECOLOR
 62
         256
  9
$CELTSCALE
 40
1.0
  9
$DELOBJ
 70
           1
  9
$DISPSILH
 70
           0
  9
$DIMSCALE
 40
1.0
  9
$DIMASZ
 40
0.18
  9
$DIMEXO
 40
0.0625
  9
$DIMDLI
 40
0.38
  9
$DIMRND
 40
0.0
  9
$DIMDLE
 40
0.0
  9
$DIMEXE
 40
0.18
  9
$DIMTP
 40
0.0
  9
$DIMTM
 40
0.0
  9
$DIMTXT
 40
0.18
  9
$DIMCEN
 40
0.09
  9
$DIMTSZ
 40
0.0
  9
$DIMTOL
 70
           0
  9
$DIMLIM
 70
           0
  9
$DIMTIH
 70
           1
  9
$DIMTOH
 70
           1
  9
$DIMSE1
 70
           0
  9
$DIMSE2
 70
           0
  9
$DIMTAD
 70
           0
  9
$DIMZIN
 70
           0
  9
$DIMBLK
  1

  9
$DIMASO
 70
           1
  9
$DIMSHO
 70
           1
  9
$DIMPOST
  1

  9
$DIMAPOST
  1

  9
$DIMALT
 70
           0
  9
$DIMALTD
 70
           2
  9
$DIMALTF
 40
25.4
  9
$DIMLFAC
 40
1.0
  9
$DIMTOFL
 70
           0
  9
$DIMTVP
 40
0.0
  9
$DIMTIX
 70
           0
  9
$DIMSOXD
 70
           0
  9
$DIMSAH
 70
           0
  9
$DIMBLK1
  1

  9
$DIMBLK2
  1

  9
$DIMSTYLE
  2
STANDARD
  9
$DIMCLRD
 70
           0
  9
$DIMCLRE
 70
           0
  9
$DIMCLRT
 70
           0
  9
$DIMTFAC
 40
1.0
  9
$DIMGAP
 40
0.09
  9
$DIMJUST
 70
           0
  9
$DIMSD1
 70
           0
  9
$DIMSD2
 70
           0
  9
$DIMTOLJ
 70
           1
  9
$DIMTZIN
 70
           0
  9
$DIMALTZ
 70
           0
  9
$DIMALTTZ
 70
           0
  9
$DIMFIT
 70
           3
  9
$DIMUPT
 70
           0
  9
$DIMUNIT
 70
           2
  9
$DIMDEC
 70
           4
  9
$DIMTDEC
 70
           4
  9
$DIMALTU
 70
           2
  9
$DIMALTTD
 70
           2
  9
$DIMTXSTY
  7
STANDARD
  9
$DIMAUNIT
 70
           0
  9
$LUNITS
 70
           2
  9
$LUPREC
 70
           4
  9
$SKETCHINC
 40
0.1
  9
$FILLETRAD
 40
0.0
  9
$AUNITS
 70
           0
  9
$AUPREC
 70
           0
  9
$MENU
  1
acad
  9
$ELEVATION
 40
0.0
  9
$PELEVATION
 40
0.0
  9
$THICKNESS
 40
0.0
  9
$LIMCHECK
 70
           0
  9
$BLIPMODE
 70
           1
  9
$CHAMFERA
 40
0.0
  9
$CHAMFERB
 40
0.0
  9
$CHAMFERC
 40
0.0
  9
$CHAMFERD
 40
0.0
  9
$SKPOLY
 70
           0
  9
$TDCREATE
 40
0.000000000
  9
$TDUPDATE
 40
0.000000000
  9
$TDINDWG
 40
0.0000000000
  9
$TDUSRTIMER
 40
0.0000000000
  9
$USRTIMER
 70
           1
  9
$ANGBASE
 50
0.0
  9
$ANGDIR
 70
           0
  9
$PDMODE
 70
           0
  9
$PDSIZE
 40
0.0
  9
$PLINEWID
 40
0.0
  9
$COORDS
 70
           0
  9
$SPLFRAME
 70
           0
  9
$SPLINETYPE
 70
           6
  9
$SPLINESEGS
 70
           8
  9
$ATTDIA
 70
           0
  9
$ATTREQ
 70
           1
  9
$HANDLING
 70
           1
  9
$HANDSEED
  5
103
  9
$SURFTAB1
 70
           6
  9
$SURFTAB2
 70
           6
  9
$SURFTYPE
 70
           6
  9
$SURFU
 70
           6
  9
$SURFV
 70
           6
  9
$UCSNAME
  2

  9
$UCSORG
 10
0.0
 20
0.0
 30
0.0
  9
$UCSXDIR
 10
1.0
 20
0.0
 30
0.0
  9
$UCSYDIR
 10
0.0
 20
1.0
 30
0.0
  9
$PUCSNAME
  2

  9
$PUCSORG
 10
0.0
 20
0.0
 30
0.0
  9
$PUCSXDIR
 10
1.0
 20
0.0
 30
0.0
  9
$PUCSYDIR
 10
0.0
 20
1.0
 30
0.0
  9
$USERI1
 70
           0
  9
$USERI2
 70
           0
  9
$USERI3
 70
           0
  9
$USERI4
 70
           0
  9
$USERI5
 70
           0
  9
$USERR1
 40
0.0
  9
$USERR2
 40
0.0
  9
$USERR3
 40
0.0
  9
$USERR4
 40
0.0
  9
$USERR5
 40
0.0
  9
$WORLDVIEW
 70
           1
  9
$SHADEDGE
 70
           3
  9
$SHADEDIF
 70
          70
  9
$TILEMODE
 70
           1
  9
$MAXACTVP
 70
          16
  9
$PINSBASE
 10
0.0
 20
0.0
 30
0.0
  9
$PLIMCHECK
 70
           0
  9
$PEXTMIN
 10
1.000000000000E+20
 20
1.000000000000E+20
 30
1.000000000000E+20
  9
$PEXTMAX
 10
-1.000000000000E+20
 20
-1.000000000000E+20
 30
-1.000000000000E+20
  9
$PLIMMIN
 10
0.0
 20
0.0
  9
$PLIMMAX
 10
12.0
 20
9.0
  9
$UNITMODE
 70
           0
  9
$VISRETAIN
 70
           0
  9
$PLINEGEN
 70
           1
  9
$PSLTSCALE
 70
           0
  9
$TREEDEPTH
 70
        3020
  9
$PICKSTYLE
 70
           1
  9
$CMLSTYLE
  2
STANDARD
  9
$CMLJUST
 70
           0
  9
$CMLSCALE
 40
1.0
  9
$PROXYGRAPHICS
 70
           0
  9
$MEASUREMENT
 70
           0
  0
ENDSEC
  0
SECTION
  2
CLASSES
  0
CLASS
  1
LWPOLYLINE
  2
AcDbPolyline
  3
"AutoCAD"
 90
        0
280
           0
281
           1
  0
CLASS
  1
IMAGE
  2
AcDbRasterImage
  3
ISM
 90
      127
280
           0
281
           1
  0
CLASS
  1
OLE2FRAME
  2
AcDbOle2Frame
  3
""
 90
        0
280
           0
281
           1
  0
CLASS
  1
HATCH
  2
AcDbHatch
  3
"ACAD_SEDONA"
 90
        0
280
           0
281
           1
  0
CLASS
  1
DICTIONARYVAR
  2
AcDbDictionaryVar
  3
"AutoCAD"
 90
        0
280
           0
281
           0
  0
CLASS
  1
RASTERVARIABLES
  2
AcDbRasterVariables
  3
ISM
 90
        0
280
           0
281
           0
  0
CLASS
  1
IMAGEDEF
  2
AcDbRasterImageDef
  3
ISM
 90
        0
280
           0
281
           0
  0
CLASS
  1
IMAGEDEF_REACTOR
  2
AcDbRasterImageDefReactor
  3
ISM
 90
        1
280
           0
281
           0
  0
CLASS
  1
IDBUFFER
  2
AcDbIdBuffer
  3
"Acad"
 90
        0
280
           0
281
           0
  0
CLASS
  1
SPATIAL_FILTER
  2
AcDbSpatialFilter
  3
"Acad"
 90
        0
280
           0
281
           0
  0
CLASS
  1
XRECORD
  2
AcDbXrecord
  3
"<Built In>"
 90
        0
280
           0
281
           0
  0
CLASS
  1
SORTENTSTABLE
  2
AcDbSortentsTable
  3
"AutoCAD"
 90
        0
280
           0
281
           0
  0
CLASS
  1
LAYER_INDEX
  2
AcDbLayerIndex
  3
"Acad"
 90
        0
280
           0
281
           0
  0
CLASS
  1
SPATIAL_INDEX
  2
AcDbSpatialIndex
  3
"Acad"
 90
        0
280
           0
281
           0
  0
CLASS
  1
OBJECT_PTR
  2
CAseDLPNTableRecord
  3
"ASE-LPNTableRecord"
 90
        1
280
           0
281
           0
  0
CLASS
  1
LAYOUT
  2
AcDbLayout
  3
"AutoCAD 2000"
 90
        1
280
           0
281
           0
  0
CLASS
  1
PLOTSETTINGS
  2
AcDbPlotSettings
  3
"AutoCAD 2000"
 90
        1
280
           0
281
           0
  0
CLASS
  1
ACDBDICTIONARYWDFLT
  2
AcDbDictionaryWithDefault
  3
"AutoCAD 2000"
 90
        1
280
           0
281
           0
  0
CLASS
  1
ACDBPLACEHOLDER
  2
AcDbPlaceHolder
  3
"AutoCAD 2000"
 90
        1
280
           0
281
           0
  0
CLASS
  1
VBA_PROJECT
  2
AcDbVbaProject
  3
"acadvba"
 90
        1
280
           0
281
           0
  0
CLASS
  1
WIPEOUT
  2
AcDbWipeout
  3
WipeOut|AutoCAD Express Tool|expresstools@autodesk.com
 90
      127
280
           0
281
           1
  0
CLASS
  1
WIPEOUTVARIABLES
  2
AcDbWipeoutVariables
  3
WipeOut|AutoCAD Express Tool|expresstools@autodesk.com
 90
        0
280
           0
281
           0
  0
CLASS
  1
RTEXT
  2
RText
  3
RText|AutoCAD Express Tool|expresstools@autodesk.com
 90
        0
280
           0
281
           1
  0
CLASS
  1
ARCALIGNEDTEXT
  2
AcDbArcAlignedText
  3
ATEXT|AutoCAD Express Tool|expresstools@autodesk.com
 90
        0
280
           0
281
           1
  0
ENDSEC
  0
SECTION
  2
TABLES
  0
TABLE
  2
VPORT
  5
7
100
AcDbSymbolTable
 70
           1
  0
VPORT
  5
15
100
AcDbSymbolTableRecord
100
AcDbViewportTableRecord
  2
*ACTIVE
 70
           0
 10
0.0
 20
0.0
 11
1.0
 21
1.0
 12
6.591288
 22
4.579184
 13
0.0
 23
0.0
 14
1.0
 24
1.0
 15
0.0
 25
0.0
 16
0.0
 26
0.0
 36
1.0
 17
0.0
 27
0.0
 37
0.0
 40
9.158369
 41
0.688564
 42
50.0
 43
0.0
 44
0.0
 50
0.0
 51
0.0
 71
           0
 72
         100
 73
           1
 74
           1
 75
           0
 76
           0
 77
           0
 78
           0
  0
ENDTAB
  0
TABLE
  2
LTYPE
  5
4
100
AcDbSymbolTable
 70
          10
  0
LTYPE
  5
11
100
AcDbSymbolTableRecord
100
AcDbLinetypeTableRecord
  2
BYBLOCK
 70
          64
  3

 72
          65
 73
           0
 40
0.0
  0
LTYPE
  5
12
100
AcDbSymbolTableRecord
100
AcDbLinetypeTableRecord
  2
BYLAYER
 70
          64
  3

 72
          65
 73
           0
 40
0.0
  0
LTYPE
  5
13
100
AcDbSymbolTableRecord
100
AcDbLinetypeTableRecord
  2
CONTINUOUS
 70
          64
  3
Solid line
 72
          65
 73
           0
 40
0.0
  0
LTYPE
  5
1D
100
AcDbSymbolTableRecord
100
AcDbLinetypeTableRecord
  2
DASHED
 70
          64
  3
Dashed
 72
          65
 73
           2
 40
15.0
 49
12.0
 74
           0
 49
-3.0
 74
           0
  0
LTYPE
  5
1E
100
AcDbSymbolTableRecord
100
AcDbLinetypeTableRecord
  2
DOTTED
 70
          64
  3
Dotted
 72
          65
 73
           2
 40
3.5
 49
0.5
 74
           0
 49
-3.0
 74
           0
  0
LTYPE
  5
1F
100
AcDbSymbolTableRecord
100
AcDbLinetypeTableRecord
  2
DOT_CENTER
 70
          64
  3
Dot_Center
 72
          65
 73
           4
 40
2.0
 49
1.25
 74
           0
 49
-0.25
 74
           0
 49
0.25
 74
           0
 49
-0.25
 74
           0
  0
LTYPE
  5
20
100
AcDbSymbolTableRecord
100
AcDbLinetypeTableRecord
  2
LONG_DASHED
 70
          64
  3
Long_Dashed
 72
          65
 73
           2
 40
2.0
 49
1.5
 74
           0
 49
-0.5
 74
           0
  0
LTYPE
  5
21
100
AcDbSymbolTableRecord
100
AcDbLinetypeTableRecord
  2
DASH_CENTER
 70
          64
  3
Dash_Center
 72
          65
 73
           4
 40
36.0
 49
24.0
 74
           0
 49
-3.0
 74
           0
 49
6.0
 74
           0
 49
-3.0
 74
           0
  0
LTYPE
  5
22
100
AcDbSymbolTableRecord
100
AcDbLinetypeTableRecord
  2
PHANTOM
 70
          64
  3
Phantom
 72
          65
 73
           6
 40
2.5
 49
1.25
 74
           0
 49
-0.25
 74
           0
 49
0.25
 74
           0
 49
-0.25
 74
           0
 49
0.25
 74
           0
 49
-0.25
 74
           0
  0
LTYPE
  5
23
100
AcDbSymbolTableRecord
100
AcDbLinetypeTableRecord
  2
CENTER_DASH_DASH
 70
          64
  3
Center_Dash_Dash
 72
          65
 73
           6
 40
22.0
 49
12.0
 74
           0
 49
-3.0
 74
           0
 49
0.5
 74
           0
 49
-3.0
 74
           0
 49
0.5
 74
           0
 49
-3.0
 74
           0
  0
ENDTAB
  0
TABLE
  2
LAYER
  5
2
100
AcDbSymbolTable
 70
           4
  0
LAYER
  5
14
100
AcDbSymbolTableRecord
100
AcDbLayerTableRecord
  2
0
 70
           0
 62
           7
  6
CONTINUOUS
  0
LAYER
  5
24
100
AcDbSymbolTableRecord
100
AcDbLayerTableRecord
  2
MITTELLINIEN
 70
           0
 62
           7
  6
CONTINUOUS
  0
LAYER
  5
25
100
AcDbSymbolTableRecord
100
AcDbLayerTableRecord
  2
1
 70
           0
 62
           7
  6
CONTINUOUS
  0
LAYER
  5
26
100
AcDbSymbolTableRecord
100
AcDbLayerTableRecord
  2
WANNE
 70
           0
 62
           7
  6
CONTINUOUS
  0
ENDTAB
  0
TABLE
  2
STYLE
  5
3
100
AcDbSymbolTable
 70
           2
  0
STYLE
  5
17
100
AcDbSymbolTableRecord
100
AcDbTextStyleTableRecord
  2
STANDARD
 70
           0
 40
0.0
 41
1.0
 50
0.0
 71
           0
 42
0.0
  3
txt
  4

  0
STYLE
  5
FF
100
AcDbSymbolTableRecord
100
AcDbTextStyleTableRecord
  2
CONVERTER_1
 70
           0
 40
0.0
 41
0.71262
 50
0.0
 71
           0
 42
0.0
  3
txt.shx
  4

  0
ENDTAB
  0
TABLE
  2
VIEW
  5
5
100
AcDbSymbolTable
 70
           0
  0
ENDTAB
  0
TABLE
  2
UCS
  5
6
100
AcDbSymbolTable
 70
           0
  0
ENDTAB
  0
TABLE
  2
APPID
  5
8
100
AcDbSymbolTable
 70
           1
  0
APPID
  5
16
100
AcDbSymbolTableRecord
100
AcDbRegAppTableRecord
  2
ACAD
 70
           0
  0
ENDTAB
  0
TABLE
  2
DIMSTYLE
  5
9
100
AcDbSymbolTable
 70
           1
  0
DIMSTYLE
105
18
100
AcDbSymbolTableRecord
100
AcDbDimStyleTableRecord
  2
STANDARD
 70
           0
  3

  4

  5

  6

  7

 40
1.0
 41
0.18
 42
0.0625
 43
0.38
 44
0.18
 45
0.0
 46
0.0
 47
0.0
 48
0.0
 71
           0
 72
           0
 73
           1
 74
           1
 75
           0
 76
           0
 77
           0
 78
           0
140
0.18
141
0.09
142
0.0
143
25.4
144
1.0
145
0.0
146
1.0
147
0.09
170
           0
171
           2
172
           0
173
           0
174
           0
175
           0
176
           0
177
           0
178
           0
270
           2
271
           4
272
           4
273
           2
274
           2
275
           0
280
           0
281
           0
282
           0
283
           1
284
           0
285
           0
286
           0
287
           0
288
           0
340
17
  0
ENDTAB
  0
TABLE
  2
BLOCK_RECORD
  5
1
100
AcDbSymbolTable
 70
           2
  0
BLOCK_RECORD
  5
A
100
AcDbSymbolTableRecord
100
AcDbBlockTableRecord
  2
*MODEL_SPACE
  0
BLOCK_RECORD
  5
B
100
AcDbSymbolTableRecord
100
AcDbBlockTableRecord
  2
*PAPER_SPACE
  0
BLOCK_RECORD
  5
27
100
AcDbSymbolTableRecord
100
AcDbBlockTableRecord
  2
DLX
  0
BLOCK_RECORD
  5
29
100
AcDbSymbolTableRecord
100
AcDbBlockTableRecord
  2
WANNE_SMART_LINE_34
  0
ENDTAB
  0
ENDSEC
  0
SECTION
  2
BLOCKS
  0
BLOCK
  5
D
100
AcDbEntity
  8
0
100
AcDbBlockBegin
  2
*MODEL_SPACE
 70
           0
 10
0.0
 20
0.0
 30
0.0
  3
*MODEL_SPACE
  1

  0
ENDBLK
  5
E
100
AcDbEntity
  8
0
100
AcDbBlockEnd
  0
BLOCK
  5
F
100
AcDbEntity
 67
           1
  8
0
100
AcDbBlockBegin
  2
*PAPER_SPACE
 70
           0
 10
0.0
 20
0.0
 30
0.0
  3
*PAPER_SPACE
  1

  0
ENDBLK
  5
10
100
AcDbEntity
 67
           1
  8
0
100
AcDbBlockEnd
  0
BLOCK
  5
28
100
AcDbEntity
  8
0
100
AcDbBlockBegin
  2
DLX
 70
           0
 10
0.0
 20
0.0
 30
0.0
  3
DLX
  1

  0
CIRCLE
  5
E2
100
AcDbEntity
  8
1
  6
CONTINUOUS
 62
           3
100
AcDbCircle
 10
597.735875237937
 20
525.878787878755
 40
5.530127989696
  0
CIRCLE
  5
E1
100
AcDbEntity
  8
1
  6
CONTINUOUS
 62
           3
100
AcDbCircle
 10
597.735875237937
 20
525.878787878755
 40
5.972862778754
  0
ARC
  5
E0
100
AcDbEntity
  8
1
  6
CONTINUOUS
 62
           3
100
AcDbCircle
 10
598.514586791596
 20
524.362233682226
 40
1.391870091328
100
AcDbArc
 50
-1.298612665727
 51
66.544866494045
  0
ARC
  5
DF
100
AcDbEntity
  8
1
  6
CONTINUOUS
 62
           3
100
AcDbCircle
 10
597.789193605106
 20
524.053039389822
 40
1.155889798232
100
AcDbArc
 50
0.985058170485
 51
82.918254632932
  0
ARC
  5
DE
100
AcDbEntity
  8
1
  6
CONTINUOUS
 62
           3
100
AcDbCircle
 10
597.864376243302
 20
527.264025930551
 40
1.257687287767
100
AcDbArc
 50
-74.800419047057
 51
80.931395238788
  0
ARC
  5
DD
100
AcDbEntity
  8
1
  6
CONTINUOUS
 62
           3
100
AcDbCircle
 10
597.942694069316
 20
527.303919921381
 40
2.009798008862
100
AcDbArc
 50
-55.929988464572
 51
86.297888718258
  0
LINE
  5
DC
100
AcDbEntity
  8
1
  6
CONTINUOUS
 62
           3
100
AcDbLine
 10
596.206636135699
 20
528.505992531278
 11
596.206636135699
 21
526.050334541276
  0
LINE
  5
DB
100
AcDbEntity
  8
1
  6
CONTINUOUS
 62
           3
100
AcDbLine
 10
598.062609127785
 20
528.505992531278
 11
596.206636135699
 21
528.505992531278
  0
LINE
  5
DA
100
AcDbEntity
  8
1
  6
CONTINUOUS
 62
           3
100
AcDbLine
 10
596.206636135699
 20
526.050334541276
 11
598.194119363641
 21
526.050334541276
  0
LINE
  5
D9
100
AcDbEntity
  8
1
  6
CONTINUOUS
 62
           3
100
AcDbLine
 10
596.206636135699
 20
522.451055788282
 11
595.334188436584
 21
522.451055788282
  0
LINE
  5
D8
100
AcDbEntity
  8
1
  6
CONTINUOUS
 62
           3
100
AcDbLine
 10
597.931697837317
 20
525.200111213842
 11
596.206636135699
 21
525.200111213842
  0
LINE
  5
D7
100
AcDbEntity
  8
1
  6
CONTINUOUS
 62
           3
100
AcDbLine
 10
598.944912577237
 20
522.451055788282
 11
598.944912577237
 21
524.0729110559
  0
LINE
  5
D6
100
AcDbEntity
  8
1
  6
CONTINUOUS
 62
           3
100
AcDbLine
 10
599.906099392742
 20
522.451055788282
 11
598.944912577237
 21
522.451055788282
  0
LINE
  5
D5
100
AcDbEntity
  8
1
  6
CONTINUOUS
 62
           3
100
AcDbLine
 10
599.906099392742
 20
524.330689554626
 11
599.906099392742
 21
522.451055788282
  0
LINE
  5
D4
100
AcDbEntity
  8
1
  6
CONTINUOUS
 62
           3
100
AcDbLine
 10
597.776108295824
 20
529.309523963456
 11
598.072464878176
 21
529.309523963456
  0
LINE
  5
D3
100
AcDbEntity
  8
1
  6
CONTINUOUS
 62
           3
100
AcDbLine
 10
595.334188436584
 20
529.309523963456
 11
597.776108295824
 21
529.309523963456
  0
LINE
  5
D2
100
AcDbEntity
  8
1
  6
CONTINUOUS
 62
           3
100
AcDbLine
 10
595.334188436584
 20
522.451055788282
 11
595.334188436584
 21
529.309523963456
  0
LINE
  5
D1
100
AcDbEntity
  8
1
  6
CONTINUOUS
 62
           3
100
AcDbLine
 10
596.206636135699
 20
525.200111213842
 11
596.206636135699
 21
522.451055788282
  0
LINE
  5
D0
100
AcDbEntity
  8
1
  6
CONTINUOUS
 62
           3
100
AcDbLine
 10
551.68540084903
 20
531.38450847832
 11
549.591323771416
 21
531.38450847832
  0
LINE
  5
CF
100
AcDbEntity
  8
1
  6
CONTINUOUS
 62
           3
100
AcDbLine
 10
548.975465701067
 20
520.323902417793
 11
551.68540084903
 21
531.38450847832
  0
LINE
  5
CE
100
AcDbEntity
  8
1
  6
CONTINUOUS
 62
           3
100
AcDbLine
 10
559.445851089087
 20
520.323902417793
 11
548.975465701067
 21
520.323902417793
  0
LINE
  5
CD
100
AcDbEntity
  8
1
  6
CONTINUOUS
 62
           3
100
AcDbLine
 10
558.903864059426
 20
518.111781205662
 11
559.445851089087
 21
520.323902417793
  0
LINE
  5
CC
100
AcDbEntity
  8
1
  6
CONTINUOUS
 62
           3
100
AcDbLine
 10
546.339401593847
 20
518.111781205662
 11
558.903864059426
 21
518.111781205662
  0
LINE
  5
CB
100
AcDbEntity
  8
1
  6
CONTINUOUS
 62
           3
100
AcDbLine
 10
549.591323771416
 20
531.38450847832
 11
546.339401593847
 21
518.111781205662
  0
LINE
  5
CA
100
AcDbEntity
  8
1
  6
CONTINUOUS
 62
           3
100
AcDbLine
 10
536.144653716558
 20
522.536023629844
 11
539.900368855924
 21
529.172387266269
  0
LINE
  5
C9
100
AcDbEntity
  8
1
  6
CONTINUOUS
 62
           3
100
AcDbLine
 10
540.957172001214
 20
529.172387266269
 11
539.900368855924
 21
529.172387266269
  0
LINE
  5
C8
100
AcDbEntity
  8
1
  6
CONTINUOUS
 62
           3
100
AcDbLine
 10
541.460964963069
 20
522.536023629844
 11
540.957172001214
 21
529.172387266269
  0
LINE
  5
C7
100
AcDbEntity
  8
1
  6
CONTINUOUS
 62
           3
100
AcDbLine
 10
536.144653716558
 20
522.536023629844
 11
541.460964963069
 21
522.536023629844
  0
LINE
  5
C6
100
AcDbEntity
  8
1
  6
CONTINUOUS
 62
           3
100
AcDbLine
 10
533.640843623664
 20
518.111781205662
 11
531.262046635093
 21
518.111781205662
  0
LINE
  5
C5
100
AcDbEntity
  8
1
  6
CONTINUOUS
 62
           3
100
AcDbLine
 10
534.892748670027
 20
520.323902417793
 11
533.640843623664
 21
518.111781205662
  0
LINE
  5
C4
100
AcDbEntity
  8
1
  6
CONTINUOUS
 62
           3
100
AcDbLine
 10
541.628895950391
 20
520.323902417793
 11
534.892748670027
 21
520.323902417793
  0
LINE
  5
C3
100
AcDbEntity
  8
1
  6
CONTINUOUS
 62
           3
100
AcDbLine
 10
541.796826937658
 20
518.111781205662
 11
541.628895950391
 21
520.323902417793
  0
LINE
  5
C2
100
AcDbEntity
  8
1
  6
CONTINUOUS
 62
           3
100
AcDbLine
 10
543.826509100727
 20
518.111781205662
 11
541.796826937658
 21
518.111781205662
  0
LINE
  5
C1
100
AcDbEntity
  8
1
  6
CONTINUOUS
 62
           3
100
AcDbLine
 10
542.818923176965
 20
531.38450847832
 11
543.826509100727
 21
518.111781205662
  0
LINE
  5
C0
100
AcDbEntity
  8
1
  6
CONTINUOUS
 62
           3
100
AcDbLine
 10
538.77347691399
 20
531.38450847832
 11
542.818923176965
 21
531.38450847832
  0
LINE
  5
BF
100
AcDbEntity
  8
1
  6
CONTINUOUS
 62
           3
100
AcDbLine
 10
531.262046635093
 20
518.111781205662
 11
538.77347691399
 21
531.38450847832
  0
LINE
  5
BE
100
AcDbEntity
  8
1
  6
CONTINUOUS
 62
           3
100
AcDbLine
 10
518.278768754059
 20
518.111781205662
 11
516.184691676499
 21
518.111781205662
  0
LINE
  5
BD
100
AcDbEntity
  8
1
  6
CONTINUOUS
 62
           3
100
AcDbLine
 10
521.084771050988
 20
529.564485538598
 11
518.278768754059
 21
518.111781205662
  0
LINE
  5
BC
100
AcDbEntity
  8
1
  6
CONTINUOUS
 62
           3
100
AcDbLine
 10
521.725319317498
 20
527.905394629535
 11
521.084771050988
 21
529.564485538598
  0
LINE
  5
BB
100
AcDbEntity
  8
1
  6
CONTINUOUS
 62
           3
100
AcDbLine
 10
525.506475653208
 20
518.111781205662
 11
521.725319317498
 21
527.905394629535
  0
LINE
  5
BA
100
AcDbEntity
  8
1
  6
CONTINUOUS
 62
           3
100
AcDbLine
 10
528.749154141977
 20
518.111781205662
 11
525.506475653208
 21
518.111781205662
  0
LINE
  5
B9
100
AcDbEntity
  8
1
  6
CONTINUOUS
 62
           3
100
AcDbLine
 10
532.001076319597
 20
531.38450847832
 11
528.749154141977
 21
518.111781205662
  0
LINE
  5
B8
100
AcDbEntity
  8
1
  6
CONTINUOUS
 62
           3
100
AcDbLine
 10
529.906999241983
 20
531.38450847832
 11
532.001076319597
 21
531.38450847832
  0
LINE
  5
B7
100
AcDbEntity
  8
1
  6
CONTINUOUS
 62
           3
100
AcDbLine
 10
527.06156733663
 20
519.770872114746
 11
529.906999241983
 21
531.38450847832
  0
LINE
  5
B6
100
AcDbEntity
  8
1
  6
CONTINUOUS
 62
           3
100
AcDbLine
 10
522.577729470355
 20
531.38450847832
 11
527.06156733663
 21
519.770872114746
  0
LINE
  5
B5
100
AcDbEntity
  8
1
  6
CONTINUOUS
 62
           3
100
AcDbLine
 10
519.436613854014
 20
531.38450847832
 11
522.577729470355
 21
531.38450847832
  0
LINE
  5
B4
100
AcDbEntity
  8
1
  6
CONTINUOUS
 62
           3
100
AcDbLine
 10
516.184691676499
 20
518.111781205662
 11
519.436613854014
 21
531.38450847832
  0
LINE
  5
B3
100
AcDbEntity
  8
1
  6
CONTINUOUS
 62
           3
100
AcDbLine
 10
516.923721360898
 20
531.38450847832
 11
514.829644283334
 21
531.38450847832
  0
LINE
  5
B2
100
AcDbEntity
  8
1
  6
CONTINUOUS
 62
           3
100
AcDbLine
 10
514.829644283334
 20
531.38450847832
 11
511.577722105769
 21
518.111781205662
  0
LINE
  5
B1
100
AcDbEntity
  8
1
  6
CONTINUOUS
 62
           3
100
AcDbLine
 10
513.671799183329
 20
518.111781205662
 11
516.923721360898
 21
531.38450847832
  0
LINE
  5
B0
100
AcDbEntity
  8
1
  6
CONTINUOUS
 62
           3
100
AcDbLine
 10
511.577722105769
 20
518.111781205662
 11
513.671799183329
 21
518.111781205662
  0
LINE
  5
AF
100
AcDbEntity
  8
1
  6
CONTINUOUS
 62
           3
100
AcDbLine
 10
509.084501950522
 20
526.739053932891
 11
511.178579028048
 21
526.739053932891
  0
LINE
  5
AE
100
AcDbEntity
  8
1
  6
CONTINUOUS
 62
           3
100
AcDbLine
 10
508.054726594372
 20
522.536023629844
 11
507.512739564605
 21
520.323902417793
  0
LINE
  5
AD
100
AcDbEntity
  8
1
  6
CONTINUOUS
 62
           3
100
AcDbLine
 10
503.866572438972
 20
522.536023629844
 11
508.054726594372
 21
522.536023629844
  0
LINE
  5
AC
100
AcDbEntity
  8
1
  6
CONTINUOUS
 62
           3
100
AcDbLine
 10
504.408559468619
 20
524.748144842033
 11
503.866572438972
 21
522.536023629844
  0
LINE
  5
AB
100
AcDbEntity
  8
1
  6
CONTINUOUS
 62
           3
100
AcDbLine
 10
510.690790701425
 20
524.748144842033
 11
509.064829612653
 21
518.111781205662
  0
LINE
  5
AA
100
AcDbEntity
  8
1
  6
CONTINUOUS
 62
           3
100
AcDbLine
 10
510.690790701425
 20
524.748144842033
 11
504.408559468619
 21
524.748144842033
  0
LINE
  5
A9
100
AcDbEntity
  8
1
  6
CONTINUOUS
 62
           3
100
AcDbLine
 10
499.136431254276
 20
520.323902417793
 11
501.304379372603
 21
529.172387266269
  0
LINE
  5
A8
100
AcDbEntity
  8
1
  6
CONTINUOUS
 62
           3
100
AcDbLine
 10
501.304379372603
 20
529.172387266269
 11
509.6806876829
 21
529.172387266269
  0
LINE
  5
A7
100
AcDbEntity
  8
1
  6
CONTINUOUS
 62
           3
100
AcDbLine
 10
509.6806876829
 20
529.172387266269
 11
509.084501950522
 21
526.739053932891
  0
LINE
  5
A6
100
AcDbEntity
  8
1
  6
CONTINUOUS
 62
           3
100
AcDbLine
 10
507.512739564605
 20
520.323902417793
 11
499.136431254276
 21
520.323902417793
  0
LINE
  5
A5
100
AcDbEntity
  8
1
  6
CONTINUOUS
 62
           3
100
AcDbLine
 10
509.064829612653
 20
518.111781205662
 11
496.50036714704
 21
518.111781205662
  0
LINE
  5
A4
100
AcDbEntity
  8
1
  6
CONTINUOUS
 62
           3
100
AcDbLine
 10
512.316751790175
 20
531.38450847832
 11
511.178579028048
 21
526.739053932891
  0
LINE
  5
A3
100
AcDbEntity
  8
1
  6
CONTINUOUS
 62
           3
100
AcDbLine
 10
499.752289324584
 20
531.38450847832
 11
512.316751790175
 21
531.38450847832
  0
LINE
  5
A2
100
AcDbEntity
  8
1
  6
CONTINUOUS
 62
           3
100
AcDbLine
 10
496.50036714704
 20
518.111781205662
 11
499.752289324584
 21
531.38450847832
  0
LINE
  5
A1
100
AcDbEntity
  8
1
  6
CONTINUOUS
 62
           3
100
AcDbLine
 10
493.987474654055
 20
518.111781205662
 11
497.239396831465
 21
531.38450847832
  0
LINE
  5
A0
100
AcDbEntity
  8
1
  6
CONTINUOUS
 62
           3
100
AcDbLine
 10
491.893397576336
 20
518.111781205662
 11
493.987474654055
 21
518.111781205662
  0
LINE
  5
9F
100
AcDbEntity
  8
1
  6
CONTINUOUS
 62
           3
100
AcDbLine
 10
495.145319753901
 20
531.38450847832
 11
491.893397576336
 21
518.111781205662
  0
LINE
  5
9E
100
AcDbEntity
  8
1
  6
CONTINUOUS
 62
           3
100
AcDbLine
 10
497.239396831465
 20
531.38450847832
 11
495.145319753901
 21
531.38450847832
  0
LINE
  5
9D
100
AcDbEntity
  8
1
  6
CONTINUOUS
 62
           3
100
AcDbLine
 10
478.910119695298
 20
518.111781205662
 11
479.994093754409
 21
522.536023629844
  0
LINE
  5
9C
100
AcDbEntity
  8
1
  6
CONTINUOUS
 62
           3
100
AcDbLine
 10
476.816042617622
 20
518.111781205662
 11
478.910119695298
 21
518.111781205662
  0
LINE
  5
9B
100
AcDbEntity
  8
1
  6
CONTINUOUS
 62
           3
100
AcDbLine
 10
490.328223469318
 20
521.979895810782
 11
489.380505083205
 21
518.111781205662
  0
LINE
  5
9A
100
AcDbEntity
  8
1
  6
CONTINUOUS
 62
           3
100
AcDbLine
 10
481.620054843184
 20
529.172387266269
 11
480.536080784001
 21
524.748144842033
  0
LINE
  5
99
100
AcDbEntity
  8
1
  6
CONTINUOUS
 62
           3
100
AcDbLine
 10
489.996363153703
 20
529.172387266269
 11
481.620054843184
 21
529.172387266269
  0
LINE
  5
98
100
AcDbEntity
  8
1
  6
CONTINUOUS
 62
           3
100
AcDbLine
 10
488.912389094381
 20
524.748144842033
 11
489.996363153703
 21
529.172387266269
  0
LINE
  5
97
100
AcDbEntity
  8
1
  6
CONTINUOUS
 62
           3
100
AcDbLine
 10
480.536080784001
 20
524.748144842033
 11
488.912389094381
 21
524.748144842033
  0
LINE
  5
96
100
AcDbEntity
  8
1
  6
CONTINUOUS
 62
           3
100
AcDbLine
 10
488.370402064938
 20
522.536023629844
 11
479.994093754409
 21
522.536023629844
  0
LINE
  5
95
100
AcDbEntity
  8
1
  6
CONTINUOUS
 62
           3
100
AcDbLine
 10
487.286428005565
 20
518.111781205662
 11
488.370402064938
 21
522.536023629844
  0
LINE
  5
94
100
AcDbEntity
  8
1
  6
CONTINUOUS
 62
           3
100
AcDbLine
 10
489.380505083205
 20
518.111781205662
 11
487.286428005565
 21
518.111781205662
  0
LINE
  5
93
100
AcDbEntity
  8
1
  6
CONTINUOUS
 62
           3
100
AcDbLine
 10
492.632427260738
 20
531.38450847832
 11
490.764903150884
 21
523.762204858332
  0
LINE
  5
92
100
AcDbEntity
  8
1
  6
CONTINUOUS
 62
           3
100
AcDbLine
 10
480.067964795158
 20
531.38450847832
 11
492.632427260738
 21
531.38450847832
  0
LINE
  5
91
100
AcDbEntity
  8
1
  6
CONTINUOUS
 62
           3
100
AcDbLine
 10
480.067964795158
 20
531.38450847832
 11
476.816042617622
 21
518.111781205662
  0
LINE
  5
90
100
AcDbEntity
  8
1
  6
CONTINUOUS
 62
           3
100
AcDbLine
 10
464.374751766132
 20
520.323902417793
 11
466.542699884474
 21
529.172387266269
  0
LINE
  5
8F
100
AcDbEntity
  8
1
  6
CONTINUOUS
 62
           3
100
AcDbLine
 10
466.542699884474
 20
529.172387266269
 11
474.919008194964
 21
529.172387266269
  0
LINE
  5
8E
100
AcDbEntity
  8
1
  6
CONTINUOUS
 62
           3
100
AcDbLine
 10
474.919008194964
 20
529.172387266269
 11
472.751060076487
 21
520.323902417793
  0
LINE
  5
8D
100
AcDbEntity
  8
1
  6
CONTINUOUS
 62
           3
100
AcDbLine
 10
472.751060076487
 20
520.323902417793
 11
464.374751766132
 21
520.323902417793
  0
LINE
  5
8C
100
AcDbEntity
  8
1
  6
CONTINUOUS
 62
           3
100
AcDbLine
 10
474.303150124491
 20
518.111781205662
 11
461.738687658966
 21
518.111781205662
  0
LINE
  5
8B
100
AcDbEntity
  8
1
  6
CONTINUOUS
 62
           3
100
AcDbLine
 10
477.555072302166
 20
531.38450847832
 11
474.303150124491
 21
518.111781205662
  0
LINE
  5
8A
100
AcDbEntity
  8
1
  6
CONTINUOUS
 62
           3
100
AcDbLine
 10
464.990609836448
 20
531.38450847832
 11
477.555072302166
 21
531.38450847832
  0
LINE
  5
89
100
AcDbEntity
  8
1
  6
CONTINUOUS
 62
           3
100
AcDbLine
 10
461.738687658966
 20
518.111781205662
 11
464.990609836448
 21
531.38450847832
  0
LINE
  5
88
100
AcDbEntity
  8
1
  6
CONTINUOUS
 62
           3
100
AcDbLine
 10
605.329503152207
 20
475.0
 11
552.738701733397
 21
475.0
  0
LINE
  5
87
100
AcDbEntity
  8
1
  6
CONTINUOUS
 62
           3
100
AcDbLine
 10
602.928830785688
 20
481.19393939391
 11
560.119681233515
 21
481.19393939391
  0
LINE
  5
86
100
AcDbEntity
  8
1
  6
CONTINUOUS
 62
           3
100
AcDbLine
 10
602.928830785688
 20
481.19393939391
 11
605.329503152207
 21
475.0
  0
LINE
  5
85
100
AcDbEntity
  8
1
  6
CONTINUOUS
 62
           3
100
AcDbLine
 10
595.686830708906
 20
499.878917066824
 11
592.906977584949
 21
507.051175145079
  0
LINE
  5
84
100
AcDbEntity
  8
1
  6
CONTINUOUS
 62
           3
100
AcDbLine
 10
601.284056889192
 20
507.051175145079
 11
595.686830708906
 21
499.878917066824
  0
LINE
  5
83
100
AcDbEntity
  8
1
  6
CONTINUOUS
 62
           3
100
AcDbLine
 10
605.32950315225
 20
507.051175145079
 11
601.284056889192
 21
507.051175145079
  0
LINE
  5
82
100
AcDbEntity
  8
1
  6
CONTINUOUS
 62
           3
100
AcDbLine
 10
597.029273107168
 20
496.415301218603
 11
605.32950315225
 21
507.051175145079
  0
LINE
  5
81
100
AcDbEntity
  8
1
  6
CONTINUOUS
 62
           3
100
AcDbLine
 10
601.899971200172
 20
483.848484848477
 11
597.029273107168
 21
496.415301218603
  0
LINE
  5
80
100
AcDbEntity
  8
1
  6
CONTINUOUS
 62
           3
100
AcDbLine
 10
597.854524937124
 20
483.848484848477
 11
601.899971200172
 21
483.848484848477
  0
LINE
  5
7F
100
AcDbEntity
  8
1
  6
CONTINUOUS
 62
           3
100
AcDbLine
 10
594.32626924244
 20
492.951685370502
 11
597.854524937124
 21
483.848484848477
  0
LINE
  5
7E
100
AcDbEntity
  8
1
  6
CONTINUOUS
 62
           3
100
AcDbLine
 10
587.222136662338
 20
483.848484848477
 11
594.32626924244
 21
492.951685370502
  0
LINE
  5
7D
100
AcDbEntity
  8
1
  6
CONTINUOUS
 62
           3
100
AcDbLine
 10
583.176690399341
 20
483.848484848477
 11
587.222136662338
 21
483.848484848477
  0
LINE
  5
7C
100
AcDbEntity
  8
1
  6
CONTINUOUS
 62
           3
100
AcDbLine
 10
592.983826844131
 20
496.415301218661
 11
583.176690399341
 21
483.848484848477
  0
LINE
  5
7B
100
AcDbEntity
  8
1
  6
CONTINUOUS
 62
           3
100
AcDbLine
 10
588.861531321934
 20
507.051175145079
 11
592.983826844131
 21
496.415301218661
  0
LINE
  5
7A
100
AcDbEntity
  8
1
  6
CONTINUOUS
 62
           3
100
AcDbLine
 10
592.906977584949
 20
507.051175145079
 11
588.861531321934
 21
507.051175145079
  0
LINE
  5
79
100
AcDbEntity
  8
1
  6
CONTINUOUS
 62
           3
100
AcDbLine
 10
575.878253440889
 20
507.051175145079
 11
570.643060746967
 21
507.051175145079
  0
LINE
  5
78
100
AcDbEntity
  8
1
  6
CONTINUOUS
 62
           3
100
AcDbLine
 10
571.277386577538
 20
488.272727272797
 11
575.878253440889
 21
507.051175145079
  0
LINE
  5
77
100
AcDbEntity
  8
1
  6
CONTINUOUS
 62
           3
100
AcDbLine
 10
576.51257927149
 20
488.272727272797
 11
571.277386577538
 21
488.272727272797
  0
LINE
  5
76
100
AcDbEntity
  8
1
  6
CONTINUOUS
 62
           3
100
AcDbLine
 10
581.113446134885
 20
507.051175145079
 11
576.51257927149
 21
488.272727272797
  0
LINE
  5
75
100
AcDbEntity
  8
1
  6
CONTINUOUS
 62
           3
100
AcDbLine
 10
586.348638828808
 20
507.051175145079
 11
581.113446134885
 21
507.051175145079
  0
LINE
  5
74
100
AcDbEntity
  8
1
  6
CONTINUOUS
 62
           3
100
AcDbLine
 10
580.6637979062
 20
483.848484848477
 11
586.348638828808
 21
507.051175145079
  0
LINE
  5
73
100
AcDbEntity
  8
1
  6
CONTINUOUS
 62
           3
100
AcDbLine
 10
564.958219824279
 20
483.848484848477
 11
580.6637979062
 21
483.848484848477
  0
LINE
  5
72
100
AcDbEntity
  8
1
  6
CONTINUOUS
 62
           3
100
AcDbLine
 10
570.643060746967
 20
507.051175145079
 11
564.958219824279
 21
483.848484848477
  0
LINE
  5
71
100
AcDbEntity
  8
1
  6
CONTINUOUS
 62
           3
100
AcDbLine
 10
563.301425922338
 20
518.111781205662
 11
552.738701733397
 21
475.0
  0
LINE
  5
70
100
AcDbEntity
  8
1
  6
CONTINUOUS
 62
           3
100
AcDbLine
 10
569.164841739606
 20
518.111781205662
 11
563.301425922338
 21
518.111781205662
  0
LINE
  5
6F
100
AcDbEntity
  8
1
  6
CONTINUOUS
 62
           3
100
AcDbLine
 10
560.119681233515
 20
481.19393939391
 11
569.164841739606
 21
518.111781205662
  0
LINE
  5
6E
100
AcDbEntity
  8
1
  6
CONTINUOUS
 62
           3
100
AcDbLine
 10
425.0
 20
475.0
 11
432.852789041055
 21
507.051175145079
  0
LINE
  5
6D
100
AcDbEntity
  8
1
  6
CONTINUOUS
 62
           3
100
AcDbLine
 10
432.852789041055
 20
507.051175145079
 11
439.135020273752
 21
507.051175145079
  0
LINE
  5
6C
100
AcDbEntity
  8
1
  6
CONTINUOUS
 62
           3
100
AcDbLine
 10
439.135020273752
 20
507.051175145079
 11
432.366205292063
 21
479.424242424182
  0
LINE
  5
6B
100
AcDbEntity
  8
1
  6
CONTINUOUS
 62
           3
100
AcDbLine
 10
432.366205292063
 20
479.424242424182
 11
437.601397985942
 21
479.424242424182
  0
LINE
  5
6A
100
AcDbEntity
  8
1
  6
CONTINUOUS
 62
           3
100
AcDbLine
 10
437.601397985942
 20
479.424242424182
 11
445.725180541824
 21
512.581478175405
  0
LINE
  5
69
100
AcDbEntity
  8
1
  6
CONTINUOUS
 62
           3
100
AcDbLine
 10
445.725180541824
 20
512.581478175405
 11
428.03408469729
 21
512.581478175405
  0
LINE
  5
68
100
AcDbEntity
  8
1
  6
CONTINUOUS
 62
           3
100
AcDbLine
 10
428.03408469729
 20
512.581478175405
 11
429.389052271275
 21
518.111781205662
  0
LINE
  5
67
100
AcDbEntity
  8
1
  6
CONTINUOUS
 62
           3
100
AcDbLine
 10
429.389052271275
 20
518.111781205662
 11
453.362379348568
 21
518.111781205662
  0
LINE
  5
66
100
AcDbEntity
  8
1
  6
CONTINUOUS
 62
           3
100
AcDbLine
 10
453.362379348568
 20
518.111781205662
 11
442.799655159648
 21
475.0
  0
LINE
  5
65
100
AcDbEntity
  8
1
  6
CONTINUOUS
 62
           3
100
AcDbLine
 10
442.799655159648
 20
475.0
 11
425.0
 21
475.0
  0
LINE
  5
64
100
AcDbEntity
  8
1
  6
CONTINUOUS
 62
           3
100
AcDbLine
 10
446.987809314774
 20
475.0
 11
454.840598355768
 21
507.051175145079
  0
LINE
  5
63
100
AcDbEntity
  8
1
  6
CONTINUOUS
 62
           3
100
AcDbLine
 10
454.840598355768
 20
507.051175145079
 11
461.122829588578
 21
507.051175145079
  0
LINE
  5
62
100
AcDbEntity
  8
1
  6
CONTINUOUS
 62
           3
100
AcDbLine
 10
461.122829588578
 20
507.051175145079
 11
454.354014606783
 21
479.424242424182
  0
LINE
  5
61
100
AcDbEntity
  8
1
  6
CONTINUOUS
 62
           3
100
AcDbLine
 10
454.354014606783
 20
479.424242424182
 11
459.589207300767
 21
479.424242424182
  0
LINE
  5
60
100
AcDbEntity
  8
1
  6
CONTINUOUS
 62
           3
100
AcDbLine
 10
459.589207300767
 20
479.424242424182
 11
466.358022282573
 21
507.051175145079
  0
LINE
  5
5F
100
AcDbEntity
  8
1
  6
CONTINUOUS
 62
           3
100
AcDbLine
 10
464.787464474364
 20
475.0
 11
446.987809314774
 21
475.0
  0
LINE
  5
5E
100
AcDbEntity
  8
1
  6
CONTINUOUS
 62
           3
100
AcDbLine
 10
466.358022282573
 20
507.051175145079
 11
472.640253515379
 21
507.051175145079
  0
LINE
  5
5D
100
AcDbEntity
  8
1
  6
CONTINUOUS
 62
           3
100
AcDbLine
 10
472.640253515379
 20
507.051175145079
 11
464.787464474364
 21
475.0
  0
LINE
  5
5C
100
AcDbEntity
  8
1
  6
CONTINUOUS
 62
           3
100
AcDbLine
 10
493.581024291314
 20
507.051175145079
 11
476.828407670542
 21
507.051175145079
  0
LINE
  5
5B
100
AcDbEntity
  8
1
  6
CONTINUOUS
 62
           3
100
AcDbLine
 10
476.828407670542
 20
507.051175145079
 11
472.227540807151
 21
488.272727272797
  0
LINE
  5
5A
100
AcDbEntity
  8
1
  6
CONTINUOUS
 62
           3
100
AcDbLine
 10
472.227540807151
 20
488.272727272797
 11
482.697926195117
 21
488.272727272797
  0
LINE
  5
59
100
AcDbEntity
  8
1
  6
CONTINUOUS
 62
           3
100
AcDbLine
 10
482.697926195117
 20
488.272727272797
 11
480.529978076698
 21
479.424242424182
  0
LINE
  5
58
100
AcDbEntity
  8
1
  6
CONTINUOUS
 62
           3
100
AcDbLine
 10
480.529978076698
 20
479.424242424182
 11
470.059592688787
 21
479.424242424182
  0
LINE
  5
57
100
AcDbEntity
  8
1
  6
CONTINUOUS
 62
           3
100
AcDbLine
 10
470.059592688787
 20
479.424242424182
 11
468.97561862948
 21
475.0
  0
LINE
  5
56
100
AcDbEntity
  8
1
  6
CONTINUOUS
 62
           3
100
AcDbLine
 10
468.97561862948
 20
475.0
 11
485.728235250302
 21
475.0
  0
LINE
  5
55
100
AcDbEntity
  8
1
  6
CONTINUOUS
 62
           3
100
AcDbLine
 10
485.728235250302
 20
475.0
 11
490.064131487226
 21
492.696969696953
  0
LINE
  5
54
100
AcDbEntity
  8
1
  6
CONTINUOUS
 62
           3
100
AcDbLine
 10
490.064131487226
 20
492.696969696953
 11
479.593746099163
 21
492.696969696953
  0
LINE
  5
53
100
AcDbEntity
  8
1
  6
CONTINUOUS
 62
           3
100
AcDbLine
 10
479.593746099163
 20
492.696969696953
 11
482.026664844176
 21
502.626932720839
  0
LINE
  5
52
100
AcDbEntity
  8
1
  6
CONTINUOUS
 62
           3
100
AcDbLine
 10
482.026664844176
 20
502.626932720839
 11
492.497050232156
 21
502.626932720839
  0
LINE
  5
51
100
AcDbEntity
  8
1
  6
CONTINUOUS
 62
           3
100
AcDbLine
 10
492.497050232156
 20
502.626932720839
 11
493.581024291314
 21
507.051175145079
  0
LINE
  5
50
100
AcDbEntity
  8
1
  6
CONTINUOUS
 62
           3
100
AcDbLine
 10
511.811859919322
 20
495.990569084413
 11
514.521795067252
 21
507.051175145079
  0
LINE
  5
4F
100
AcDbEntity
  8
1
  6
CONTINUOUS
 62
           3
100
AcDbLine
 10
514.521795067252
 20
507.051175145079
 11
497.769178446531
 21
507.051175145079
  0
LINE
  5
4E
100
AcDbEntity
  8
1
  6
CONTINUOUS
 62
           3
100
AcDbLine
 10
497.769178446531
 20
507.051175145079
 11
489.916389405538
 21
475.0
  0
LINE
  5
4D
100
AcDbEntity
  8
1
  6
CONTINUOUS
 62
           3
100
AcDbLine
 10
489.916389405538
 20
475.0
 11
506.669006026292
 21
475.0
  0
LINE
  5
4C
100
AcDbEntity
  8
1
  6
CONTINUOUS
 62
           3
100
AcDbLine
 10
506.669006026292
 20
475.0
 11
509.378941174266
 21
486.060606060608
  0
LINE
  5
4B
100
AcDbEntity
  8
1
  6
CONTINUOUS
 62
           3
100
AcDbLine
 10
509.378941174266
 20
486.060606060608
 11
503.096709941478
 21
486.060606060608
  0
LINE
  5
4A
100
AcDbEntity
  8
1
  6
CONTINUOUS
 62
           3
100
AcDbLine
 10
503.096709941478
 20
486.060606060608
 11
501.470748852691
 21
479.424242424182
  0
LINE
  5
49
100
AcDbEntity
  8
1
  6
CONTINUOUS
 62
           3
100
AcDbLine
 10
501.470748852691
 20
479.424242424182
 11
497.282594697488
 21
479.424242424182
  0
LINE
  5
48
100
AcDbEntity
  8
1
  6
CONTINUOUS
 62
           3
100
AcDbLine
 10
497.282594697488
 20
479.424242424182
 11
502.967435620118
 21
502.626932720839
  0
LINE
  5
47
100
AcDbEntity
  8
1
  6
CONTINUOUS
 62
           3
100
AcDbLine
 10
502.967435620118
 20
502.626932720839
 11
507.15558977531
 21
502.626932720839
  0
LINE
  5
46
100
AcDbEntity
  8
1
  6
CONTINUOUS
 62
           3
100
AcDbLine
 10
507.15558977531
 20
502.626932720839
 11
505.529628686516
 21
495.990569084413
  0
LINE
  5
45
100
AcDbEntity
  8
1
  6
CONTINUOUS
 62
           3
100
AcDbLine
 10
505.529628686516
 20
495.990569084413
 11
511.811859919322
 21
495.990569084413
  0
LINE
  5
44
100
AcDbEntity
  8
1
  6
CONTINUOUS
 62
           3
100
AcDbLine
 10
510.857160181473
 20
475.0
 11
517.139391414261
 21
475.0
  0
LINE
  5
43
100
AcDbEntity
  8
1
  6
CONTINUOUS
 62
           3
100
AcDbLine
 10
527.609776802336
 20
475.0
 11
535.462565843351
 21
507.051175145079
  0
LINE
  5
42
100
AcDbEntity
  8
1
  6
CONTINUOUS
 62
           3
100
AcDbLine
 10
521.327545569439
 20
475.0
 11
524.711953060334
 21
488.813466360341
  0
LINE
  5
41
100
AcDbEntity
  8
1
  6
CONTINUOUS
 62
           3
100
AcDbLine
 10
517.139391414261
 20
475.0
 11
520.523798905146
 21
488.813466360341
  0
LINE
  5
40
100
AcDbEntity
  8
1
  6
CONTINUOUS
 62
           3
100
AcDbLine
 10
518.709949222466
 20
507.051175145079
 11
510.857160181473
 21
475.0
  0
LINE
  5
3F
100
AcDbEntity
  8
1
  6
CONTINUOUS
 62
           3
100
AcDbLine
 10
535.462565843351
 20
507.051175145079
 11
529.180334610435
 21
507.051175145079
  0
LINE
  5
3E
100
AcDbEntity
  8
1
  6
CONTINUOUS
 62
           3
100
AcDbLine
 10
531.797930957462
 20
475.0
 11
548.55054757827
 21
475.0
  0
LINE
  5
3D
100
AcDbEntity
  8
1
  6
CONTINUOUS
 62
           3
100
AcDbLine
 10
543.352290404568
 20
479.424242424182
 11
539.164136249467
 21
479.424242424182
  0
LINE
  5
3C
100
AcDbEntity
  8
1
  6
CONTINUOUS
 62
           3
100
AcDbLine
 10
539.650719998459
 20
507.051175145079
 11
531.797930957462
 21
475.0
  0
LINE
  5
3B
100
AcDbEntity
  8
1
  6
CONTINUOUS
 62
           3
100
AcDbLine
 10
539.164136249467
 20
479.424242424182
 11
544.848977172042
 21
502.626932720839
  0
LINE
  5
3A
100
AcDbEntity
  8
1
  6
CONTINUOUS
 62
           3
100
AcDbLine
 10
556.403336619289
 20
507.051175145079
 11
539.650719998459
 21
507.051175145079
  0
LINE
  5
39
100
AcDbEntity
  8
1
  6
CONTINUOUS
 62
           3
100
AcDbLine
 10
544.848977172042
 20
502.626932720839
 11
549.037131327292
 21
502.626932720839
  0
LINE
  5
38
100
AcDbEntity
  8
1
  6
CONTINUOUS
 62
           3
100
AcDbLine
 10
549.037131327292
 20
502.626932720839
 11
543.352290404568
 21
479.424242424182
  0
LINE
  5
37
100
AcDbEntity
  8
1
  6
CONTINUOUS
 62
           3
100
AcDbLine
 10
556.403336619289
 20
507.051175145079
 11
548.55054757827
 21
475.0
  0
LINE
  5
36
100
AcDbEntity
  8
1
  6
CONTINUOUS
 62
           3
100
AcDbLine
 10
524.992180455331
 20
507.051175145079
 11
518.709949222466
 21
507.051175145079
  0
LINE
  5
35
100
AcDbEntity
  8
1
  6
CONTINUOUS
 62
           3
100
AcDbLine
 10
521.327545569439
 20
475.0
 11
527.609776802336
 21
475.0
  0
LINE
  5
34
100
AcDbEntity
  8
1
  6
CONTINUOUS
 62
           3
100
AcDbLine
 10
520.523798905146
 20
488.813466360341
 11
524.711953060334
 21
488.813466360341
  0
LINE
  5
33
100
AcDbEntity
  8
1
  6
CONTINUOUS
 62
           3
100
AcDbLine
 10
521.607772964315
 20
493.237708784527
 11
525.795927119554
 21
493.237708784527
  0
LINE
  5
32
100
AcDbEntity
  8
1
  6
CONTINUOUS
 62
           3
100
AcDbLine
 10
521.607772964315
 20
493.237708784527
 11
524.992180455331
 21
507.051175145079
  0
LINE
  5
31
100
AcDbEntity
  8
1
  6
CONTINUOUS
 62
           3
100
AcDbLine
 10
525.795927119554
 20
493.237708784527
 11
529.180334610435
 21
507.051175145079
  0
LINE
  5
30
100
AcDbEntity
  8
1
  6
CONTINUOUS
 62
           3
100
AcDbLine
 10
490.764903150884
 20
523.762204858332
 11
490.032820381937
 21
522.978447872363
  0
LINE
  5
2F
100
AcDbEntity
  8
1
  6
CONTINUOUS
 62
           3
100
AcDbLine
 10
490.328223469318
 20
521.979895810782
 11
490.032820381937
 21
522.978447872363
  0
ENDBLK
  5
E3
100
AcDbEntity
  8
0
100
AcDbBlockEnd
  0
BLOCK
  5
2A
100
AcDbEntity
  8
0
100
AcDbBlockBegin
  2
WANNE_SMART_LINE_34
 70
           0
 10
0.0
 20
0.0
 30
0.0
  3
WANNE_SMART_LINE_34
  1

  0
SPLINE
  5
FC
100
AcDbEntity
  8
1
  6
CONTINUOUS
 62
           7
100
AcDbSpline
210
0.0
220
0.0
230
1.0
 70
           0
 71
           3
 72
          41
 73
          38
 74
          77
 42
0.00000000001
 43
0.00000000001
 44
0.00000000001
 40
-1.7747031480308806
 40
-0.1491110169696981
 40
1.4764811140915257
 40
3.3442545556988819
 40
5.8688042616061473
 40
9.245333245946231
 40
13.458047720742478
 40
18.410297395420386
 40
23.970225639105983
 40
29.980492803509371
 40
36.267452290357326
 40
42.647709713833805
 40
48.934669200681796
 40
54.944936365086051
 40
60.504864608772102
 40
65.457114283449513
 40
69.66982875824489
 40
73.046357742585727
 40
75.570907448493415
 40
77.438680890100358
 40
79.064273021160091
 40
80.932046462766905
 40
83.456596168673968
 40
86.833125153014436
 40
91.045839627811546
 40
95.998089302490484
 40
101.55801754617605
 40
107.56828471057844
 40
113.8552441974264
 40
120.2355016209023
 40
126.52246110775087
 40
132.53272827215466
 40
138.09265651583951
 40
143.0449061905185
 40
147.25762066531448
 40
150.63414964965438
 40
153.15869935556293
 40
155.02647279717115
 40
156.65206492823165
 40
158.27765705929284
 40
159.90324919035405
 10
937.17586330521794
 20
81.929226931896778
 30
0.0
 10
936.39247716432192
 20
83.353606070616593
 30
0.0
 10
934.58767479386711
 20
84.44658249293127
 30
0.0
 10
931.8431305416841
 20
85.498270744374281
 30
0.0
 10
928.14923087627608
 20
86.447502007350636
 30
0.0
 10
923.61204795997992
 20
87.272152046654014
 30
0.0
 10
918.36147394336808
 20
87.940844081537875
 30
0.0
 10
912.55531914643211
 20
88.431774679357773
 30
0.0
 10
906.36878044872992
 20
88.728729794623746
 30
0.0
 10
899.98920653774803
 20
88.822118788428384
 30
0.0
 10
893.60995343705895
 20
88.708916901706402
 30
0.0
 10
887.42436684356107
 20
88.392749393849613
 30
0.0
 10
881.619764755098
 20
87.883788715156811
 30
0.0
 10
876.3712928495479
 20
87.198792950126631
 30
0.0
 10
871.83669296986795
 20
86.360055545194996
 30
0.0
 10
868.14575919182494
 20
85.399356541956081
 30
0.0
 10
865.40449445391209
 20
84.339149502227087
 30
0.0
 10
863.60309529611595
 20
83.24057309139846
 30
0.0
 10
862.8241366947841
 20
81.813767822984232
 30
0.0
 10
863.60752283567695
 20
80.389388684264418
 30
0.0
 10
865.41232520613198
 20
79.296412261949285
 30
0.0
 10
868.15686945831408
 20
78.244724010506275
 30
0.0
 10
871.85076912372392
 20
77.295492747530375
 30
0.0
 10
876.38795204002008
 20
76.470842708226542
 30
0.0
 10
881.63852605663396
 20
75.802150673343135
 30
0.0
 10
887.44468085356789
 20
75.311220075523238
 30
0.0
 10
893.63121955127008
 20
75.01426496025681
 30
0.0
 10
900.01079346225197
 20
74.920875966452627
 30
0.0
 10
906.39004656293992
 20
75.034077853174153
 30
0.0
 10
912.57563315644006
 20
75.350245361031853
 30
0.0
 10
918.38023524489995
 20
75.85920603972329
 30
0.0
 10
923.62870715045096
 20
76.544201804753925
 30
0.0
 10
928.16330703013296
 20
77.382939209686469
 30
0.0
 10
931.85424080817506
 20
78.34363821292493
 30
0.0
 10
934.595505546087
 20
79.403845252653923
 30
0.0
 10
936.39690470388609
 20
80.502421663482551
 30
0.0
 10
937.17586330521794
 20
81.929226931896778
 30
0.0
 10
936.39247716432192
 20
83.353606070616593
 30
0.0
 11
936.81132477647452
 21
82.592043196437317
 31
0.0
 11
936.30532238191404
 21
83.279408552420506
 31
0.0
 11
935.6250104225378
 21
83.818378872011579
 31
0.0
 11
934.55347175853672
 21
84.402012686719488
 31
0.0
 11
933.41352702387564
 21
84.896506889003888
 31
0.0
 11
931.82486659819097
 21
85.453410359463533
 31
0.0
 11
930.19967828552035
 21
85.92059306010168
 31
0.0
 11
928.14045890660623
 21
86.410538238800683
 31
0.0
 11
926.06369558835286
 21
86.826555880399781
 31
0.0
 11
923.60657817520178
 21
87.239507615646176
 31
0.0
 11
921.13852119249475
 21
87.58717048887695
 31
0.0
 11
918.35821503745751
 21
87.911403487986902
 31
0.0
 11
915.57139107059947
 21
88.176755299994909
 31
0.0
 11
912.55341972734357
 21
88.404304023407803
 31
0.0
 11
909.53164954591068
 21
88.576911434920703
 31
0.0
 11
906.36792442390106
 21
88.702362849101704
 31
0.0
 11
903.20248725223428
 21
88.775080372238676
 31
0.0
 11
899.9892469343929
 21
88.796104727714933
 31
0.0
 11
896.77608740984124
 21
88.76510096176429
 31
0.0
 11
893.61089134682368
 21
88.682552741944789
 31
0.0
 11
890.44757110333558
 21
88.547276202602035
 31
0.0
 11
887.42635157040024
 21
88.365284769501585
 31
0.0
 11
884.40910149114291
 21
88.128364087705052
 31
0.0
 11
881.6231150803294
 21
87.854358384931004
 31
0.0
 11
878.84382931997902
 21
87.521492021705342
 31
0.0
 11
876.37686399329414
 21
87.166165664326101
 31
0.0
 11
873.9210409541023
 21
86.745584735345858
 31
0.0
 11
871.84557969734919
 21
86.323119198435109
 31
0.0
 11
869.78789189555869
 21
85.82678096800457
 31
0.0
 11
868.16416237224541
 21
85.354553096589882
 31
0.0
 11
866.57723920977321
 21
84.79271833444281
 31
0.0
 11
865.43883574683355
 21
84.294686136947135
 31
0.0
 11
864.3691148697369
 21
83.707727208891541
 31
0.0
 11
863.69048009691892
 21
83.166646611760029
 31
0.0
 11
863.18661492570675
 21
82.477713055351714
 31
0.0
 11
863.00589088470008
 21
81.814050064941028
 31
0.0
 11
863.18867522352571
 21
81.150951558443921
 31
0.0
 11
863.69467761808528
 21
80.463586202460533
 31
0.0
 11
864.37498957746095
 21
79.92461588286929
 31
0.0
 11
865.44652824146192
 21
79.340982068161154
 31
0.0
 11
866.58647297612288
 21
78.846487865876711
 31
0.0
 11
868.17513340180744
 21
78.289584395417094
 31
0.0
 11
869.80032171447874
 21
77.822401694779103
 31
0.0
 11
871.85954109339343
 21
77.332456516080228
 31
0.0
 11
873.93630441164714
 21
76.916438874481031
 31
0.0
 11
876.39342182479834
 21
76.503487139234466
 31
0.0
 11
878.8614788075065
 21
76.155824266003776
 31
0.0
 11
881.64178496254408
 21
75.831591266894037
 31
0.0
 11
884.42860892940178
 21
75.566239454886073
 31
0.0
 11
887.44658027265666
 21
75.338690731473164
 31
0.0
 11
890.46835045408898
 21
75.166083319960094
 31
0.0
 11
893.63207557609871
 21
75.040631905778966
 31
0.0
 11
896.79751274776595
 21
74.967914382642093
 31
0.0
 11
900.01075306560688
 21
74.946890027165949
 31
0.0
 11
903.22391259015785
 21
74.977893793116493
 31
0.0
 11
906.38910865317553
 21
75.060442012935965
 31
0.0
 11
909.55242889666465
 21
75.195718552279004
 31
0.0
 11
912.57364842960033
 21
75.377709985379596
 31
0.0
 11
915.59089850885675
 21
75.614630667175703
 31
0.0
 11
918.3768849196689
 21
75.88863636994931
 31
0.0
 11
921.1561706800187
 21
76.221502733174901
 31
0.0
 11
923.62313600670461
 21
76.576829090554497
 31
0.0
 11
926.07895904589793
 21
76.997410019535238
 31
0.0
 11
928.15442030265149
 21
77.419875556446229
 31
0.0
 11
930.21210810444222
 21
77.916213786876739
 31
0.0
 11
931.83583762775459
 21
78.388441658291171
 31
0.0
 11
933.42276079022577
 21
78.95027642043803
 31
0.0
 11
934.56116425316588
 21
79.448308617933819
 31
0.0
 11
935.63088513026378
 21
80.035267545989385
 31
0.0
 11
936.30951990308279
 21
80.576348143120953
 31
0.0
 11
936.81338507429541
 21
81.265281699529368
 31
0.0
 11
936.98732047987539
 21
81.941288016144867
 31
0.0
 11
936.78417023477004
 21
82.641416501256543
 31
0.0
 11
936.58832369954598
 21
82.997511285936611
 31
0.0
 11
936.78417023476993
 21
82.641416501256685
 31
0.0
 11
936.98680540542011
 21
82.27297839037189
 31
0.0
 11
936.81132477647475
 21
82.592043196437302
 31
0.0
  0
CIRCLE
  5
FB
100
AcDbEntity
  8
WANNE
  6
CONTINUOUS
 62
           7
100
AcDbCircle
 10
899.999999999994
 20
343.0
 40
45.0
  0
CIRCLE
  5
FA
100
AcDbEntity
  8
WANNE
  6
CONTINUOUS
 62
           7
100
AcDbCircle
 10
899.999999999994
 20
343.0
 40
26.0
  0
ARC
  5
F9
100
AcDbEntity
  8
1
  6
CONTINUOUS
 62
           7
100
AcDbCircle
 10
411.045278317002
 20
350.000000000002
 40
384.999999999998
100
AcDbArc
 50
146.251011062175
 51
180.0
  0
ARC
  5
F8
100
AcDbEntity
  8
1
  6
CONTINUOUS
 62
           7
100
AcDbCircle
 10
1190.006062495867
 20
349.999999999992
 40
384.999999999943
100
AcDbArc
 50
-46.658241772783
 51
0.0
  0
ARC
  5
F7
100
AcDbEntity
  8
1
  6
CONTINUOUS
 62
           7
100
AcDbCircle
 10
691.38097976257
 20
350.000000000003
 40
385.000000000078
100
AcDbArc
 50
161.561952656338
 51
-157.522190886956
  0
ARC
  5
F6
100
AcDbEntity
  8
1
  6
CONTINUOUS
 62
           7
100
AcDbCircle
 10
492.715028980811
 20
267.800000000041
 40
170.000000000046
100
AcDbArc
 50
-157.522190886942
 51
-90.000000000009
  0
ARC
  5
F5
100
AcDbEntity
  8
1
  6
CONTINUOUS
 62
           7
100
AcDbCircle
 10
487.417747781809
 20
418.000000000006
 40
169.99999999999
100
AcDbArc
 50
89.999999999995
 51
161.561952656334
  0
ARC
  5
F4
100
AcDbEntity
  8
1
  6
CONTINUOUS
 62
           7
100
AcDbCircle
 10
1108.619020237527
 20
350.000000000001
 40
384.999999999963
100
AcDbArc
 50
-22.477809113049
 51
18.438047343668
  0
ARC
  5
F3
100
AcDbEntity
  8
1
  6
CONTINUOUS
 62
           7
100
AcDbCircle
 10
1307.284971019209
 20
267.799999999972
 40
169.999999999976
100
AcDbArc
 50
-90.000000000005
 51
-22.477809113038
  0
ARC
  5
F2
100
AcDbEntity
  8
1
  6
CONTINUOUS
 62
           7
100
AcDbCircle
 10
1312.582252218216
 20
418.000000000076
 40
169.99999999992
100
AcDbArc
 50
18.438047343649
 51
90.000000000017
  0
ARC
  5
F1
100
AcDbEntity
  8
1
  6
CONTINUOUS
 62
           7
100
AcDbCircle
 10
1190.006062495867
 20
349.999999999992
 40
384.999999999943
100
AcDbArc
 50
0.0
 51
33.748988937832
  0
ARC
  5
F0
100
AcDbEntity
  8
1
  6
CONTINUOUS
 62
           7
100
AcDbCircle
 10
1302.255783651464
 20
425.000000669981
 40
249.999999999915
100
AcDbArc
 50
33.748988937815
 51
90.000000000009
  0
ARC
  5
EF
100
AcDbEntity
  8
1
  6
CONTINUOUS
 62
           7
100
AcDbCircle
 10
411.045278317002
 20
350.000000000002
 40
384.999999999999
100
AcDbArc
 50
180.0
 51
-133.341758227221
  0
ARC
  5
EE
100
AcDbEntity
  8
1
  6
CONTINUOUS
 62
           7
100
AcDbCircle
 10
298.795557161374
 20
425.000000669902
 40
249.999999999994
100
AcDbArc
 50
89.999999999999
 51
146.251011062175
  0
LINE
  5
ED
100
AcDbEntity
  8
1
  6
CONTINUOUS
 62
           7
100
AcDbLine
 10
492.715028980784
 20
97.799999999996
 11
1307.284971019193
 21
97.799999999996
  0
LINE
  5
EC
100
AcDbEntity
  8
1
  6
CONTINUOUS
 62
           7
100
AcDbLine
 10
1312.582252218164
 20
587.999999999996
 11
487.417747781824
 21
587.999999999996
  0
LINE
  5
EB
100
AcDbEntity
  8
1
  6
CONTINUOUS
 62
           7
100
AcDbLine
 10
146.801073082528
 20
70.0
 11
1454.250267730266
 21
70.0
  0
LINE
  5
EA
100
AcDbEntity
  8
1
  6
CONTINUOUS
 62
           7
100
AcDbLine
 10
298.777255552481
 20
675.0
 11
1302.274085215618
 21
675.0
  0
LINE
  5
E9
100
AcDbEntity
  8
MITTELLINIEN
  6
DOT_CENTER
 62
           3
100
AcDbLine
 10
900.0
 20
406.989954999999
 11
900.0
 21
277.321980999999
  0
LINE
  5
E8
100
AcDbEntity
  8
MITTELLINIEN
  6
DOT_CENTER
 62
           3
100
AcDbLine
 10
963.989954999998
 20
343.0
 11
834.321980999987
 21
343.0
  0
LINE
  5
E7
100
AcDbEntity
  8
1
  6
CONTINUOUS
 62
           7
100
AcDbLine
 10
0.0
 20
0.0
 11
1600.0
 21
0.0
  0
LINE
  5
E6
100
AcDbEntity
  8
1
  6
CONTINUOUS
 62
           7
100
AcDbLine
 10
0.0
 20
0.0
 11
0.0
 21
700.0
  0
LINE
  5
E5
100
AcDbEntity
  8
1
  6
CONTINUOUS
 62
           7
100
AcDbLine
 10
1600.0
 20
0.0
 11
1600.0
 21
700.0
  0
LINE
  5
E4
100
AcDbEntity
  8
1
  6
CONTINUOUS
 62
           7
100
AcDbLine
 10
0.0
 20
700.0
 11
1600.0
 21
700.0
  0
ENDBLK
  5
FD
100
AcDbEntity
  8
0
100
AcDbBlockEnd
  0
ENDSEC
  0
SECTION
  2
ENTITIES
  0
MTEXT
  5
101
100
AcDbEntity
  8
1
 62
           3
100
AcDbMText
 10
950.0
 20
293.0
 30
0.0
 40
35.0
 41
0.0
 71
           1
 72
           1
  1
ø 52
  7
CONVERTER_1
  0
TEXT
  5
100
100
AcDbEntity
  8
1
 62
           2
100
AcDbText
 10
425.0
 20
390.0
 40
35.0
  1
Smart-Line 34
 41
0.71262
  7
CONVERTER_1
100
AcDbText
  0
INSERT
  5
2D
100
AcDbEntity
  8
0
100
AcDbBlockReference
  2
DLX
 10
0.0
 20
0.0
  0
INSERT
  5
2E
100
AcDbEntity
  8
0
100
AcDbBlockReference
  2
WANNE_SMART_LINE_34
 10
0.0
 20
0.0
  0
ENDSEC
  0
SECTION
  2
OBJECTS
  0
DICTIONARY
  5
19
100
AcDbDictionary
  3
ACAD_GROUP
350
1A
  3
ACAD_MLINESTYLE
350
1B
  0
DICTIONARY
  5
1A
102
{ACAD_REACTORS
330
19
102
}
100
AcDbDictionary
  0
DICTIONARY
  5
1B
102
{ACAD_REACTORS
330
19
102
}
100
AcDbDictionary
  3
STANDARD
350
1C
  0
MLINESTYLE
  5
1C
102
{ACAD_REACTORS
330
1B
102
}
100
AcDbMlineStyle
  2
STANDARD
 70
           0
  3

 62
           0
 51
90.0
 52
90.0
 71
           2
 49
0.5
 62
         256
  6
BYLAYER
 49
-0.5
 62
         256
  6
BYLAYER
  0
ENDSEC
  0
EOF
