  0
SECTION
  2
HEADER
  9
$ACADVER
  1
AC1014
  9
$ACADMAINTVER
 70
           0
  9
$DWGCODEPAGE
  3
ANSI_1252
  9
$INSBASE
 10
0.0
 20
0.0
 30
0.0
  9
$EXTMIN
 10
1.000000000000E+20
 20
1.000000000000E+20
 30
1.000000000000E+20
  9
$EXTMAX
 10
-1.000000000000E+20
 20
-1.000000000000E+20
 30
-1.000000000000E+20
  9
$LIMMIN
 10
0.0
 20
0.0
  9
$LIMMAX
 10
0.0
 20
0.0
  9
$ORTHOMODE
 70
           0
  9
$REGENMODE
 70
           1
  9
$FILLMODE
 70
           1
  9
$QTEXTMODE
 70
           0
  9
$MIRRTEXT
 70
           1
  9
$DRAGMODE
 70
           2
  9
$LTSCALE
 40
1.0
  9
$OSMODE
 70
           0
  9
$ATTMODE
 70
           1
  9
$TEXTSIZE
 40
0.2
  9
$TRACEWID
 40
0.05
  9
$TEXTSTYLE
  7
STANDARD
  9
$CLAYER
  8
0
  9
$CELTYPE
  6
CONTINUOUS
  9
$CECOLOR
 62
         256
  9
$CELTSCALE
 40
1.0
  9
$DELOBJ
 70
           1
  9
$DISPSILH
 70
           0
  9
$DIMSCALE
 40
1.0
  9
$DIMASZ
 40
0.18
  9
$DIMEXO
 40
0.0625
  9
$DIMDLI
 40
0.38
  9
$DIMRND
 40
0.0
  9
$DIMDLE
 40
0.0
  9
$DIMEXE
 40
0.18
  9
$DIMTP
 40
0.0
  9
$DIMTM
 40
0.0
  9
$DIMTXT
 40
0.18
  9
$DIMCEN
 40
0.09
  9
$DIMTSZ
 40
0.0
  9
$DIMTOL
 70
           0
  9
$DIMLIM
 70
           0
  9
$DIMTIH
 70
           1
  9
$DIMTOH
 70
           1
  9
$DIMSE1
 70
           0
  9
$DIMSE2
 70
           0
  9
$DIMTAD
 70
           0
  9
$DIMZIN
 70
           0
  9
$DIMBLK
  1

  9
$DIMASO
 70
           1
  9
$DIMSHO
 70
           1
  9
$DIMPOST
  1

  9
$DIMAPOST
  1

  9
$DIMALT
 70
           0
  9
$DIMALTD
 70
           2
  9
$DIMALTF
 40
25.4
  9
$DIMLFAC
 40
1.0
  9
$DIMTOFL
 70
           0
  9
$DIMTVP
 40
0.0
  9
$DIMTIX
 70
           0
  9
$DIMSOXD
 70
           0
  9
$DIMSAH
 70
           0
  9
$DIMBLK1
  1

  9
$DIMBLK2
  1

  9
$DIMSTYLE
  2
STANDARD
  9
$DIMCLRD
 70
           0
  9
$DIMCLRE
 70
           0
  9
$DIMCLRT
 70
           0
  9
$DIMTFAC
 40
1.0
  9
$DIMGAP
 40
0.09
  9
$DIMJUST
 70
           0
  9
$DIMSD1
 70
           0
  9
$DIMSD2
 70
           0
  9
$DIMTOLJ
 70
           1
  9
$DIMTZIN
 70
           0
  9
$DIMALTZ
 70
           0
  9
$DIMALTTZ
 70
           0
  9
$DIMFIT
 70
           3
  9
$DIMUPT
 70
           0
  9
$DIMUNIT
 70
           2
  9
$DIMDEC
 70
           4
  9
$DIMTDEC
 70
           4
  9
$DIMALTU
 70
           2
  9
$DIMALTTD
 70
           2
  9
$DIMTXSTY
  7
STANDARD
  9
$DIMAUNIT
 70
           0
  9
$LUNITS
 70
           2
  9
$LUPREC
 70
           4
  9
$SKETCHINC
 40
0.1
  9
$FILLETRAD
 40
0.0
  9
$AUNITS
 70
           0
  9
$AUPREC
 70
           0
  9
$MENU
  1
acad
  9
$ELEVATION
 40
0.0
  9
$PELEVATION
 40
0.0
  9
$THICKNESS
 40
0.0
  9
$LIMCHECK
 70
           0
  9
$BLIPMODE
 70
           1
  9
$CHAMFERA
 40
0.0
  9
$CHAMFERB
 40
0.0
  9
$CHAMFERC
 40
0.0
  9
$CHAMFERD
 40
0.0
  9
$SKPOLY
 70
           0
  9
$TDCREATE
 40
0.000000000
  9
$TDUPDATE
 40
0.000000000
  9
$TDINDWG
 40
0.0000000000
  9
$TDUSRTIMER
 40
0.0000000000
  9
$USRTIMER
 70
           1
  9
$ANGBASE
 50
0.0
  9
$ANGDIR
 70
           0
  9
$PDMODE
 70
           0
  9
$PDSIZE
 40
0.0
  9
$PLINEWID
 40
0.0
  9
$COORDS
 70
           0
  9
$SPLFRAME
 70
           0
  9
$SPLINETYPE
 70
           6
  9
$SPLINESEGS
 70
           8
  9
$ATTDIA
 70
           0
  9
$ATTREQ
 70
           1
  9
$HANDLING
 70
           1
  9
$HANDSEED
  5
10A
  9
$SURFTAB1
 70
           6
  9
$SURFTAB2
 70
           6
  9
$SURFTYPE
 70
           6
  9
$SURFU
 70
           6
  9
$SURFV
 70
           6
  9
$UCSNAME
  2

  9
$UCSORG
 10
0.0
 20
0.0
 30
0.0
  9
$UCSXDIR
 10
1.0
 20
0.0
 30
0.0
  9
$UCSYDIR
 10
0.0
 20
1.0
 30
0.0
  9
$PUCSNAME
  2

  9
$PUCSORG
 10
0.0
 20
0.0
 30
0.0
  9
$PUCSXDIR
 10
1.0
 20
0.0
 30
0.0
  9
$PUCSYDIR
 10
0.0
 20
1.0
 30
0.0
  9
$USERI1
 70
           0
  9
$USERI2
 70
           0
  9
$USERI3
 70
           0
  9
$USERI4
 70
           0
  9
$USERI5
 70
           0
  9
$USERR1
 40
0.0
  9
$USERR2
 40
0.0
  9
$USERR3
 40
0.0
  9
$USERR4
 40
0.0
  9
$USERR5
 40
0.0
  9
$WORLDVIEW
 70
           1
  9
$SHADEDGE
 70
           3
  9
$SHADEDIF
 70
          70
  9
$TILEMODE
 70
           1
  9
$MAXACTVP
 70
          16
  9
$PINSBASE
 10
0.0
 20
0.0
 30
0.0
  9
$PLIMCHECK
 70
           0
  9
$PEXTMIN
 10
1.000000000000E+20
 20
1.000000000000E+20
 30
1.000000000000E+20
  9
$PEXTMAX
 10
-1.000000000000E+20
 20
-1.000000000000E+20
 30
-1.000000000000E+20
  9
$PLIMMIN
 10
0.0
 20
0.0
  9
$PLIMMAX
 10
12.0
 20
9.0
  9
$UNITMODE
 70
           0
  9
$VISRETAIN
 70
           0
  9
$PLINEGEN
 70
           1
  9
$PSLTSCALE
 70
           0
  9
$TREEDEPTH
 70
        3020
  9
$PICKSTYLE
 70
           1
  9
$CMLSTYLE
  2
STANDARD
  9
$CMLJUST
 70
           0
  9
$CMLSCALE
 40
1.0
  9
$PROXYGRAPHICS
 70
           0
  9
$MEASUREMENT
 70
           0
  0
ENDSEC
  0
SECTION
  2
CLASSES
  0
CLASS
  1
LWPOLYLINE
  2
AcDbPolyline
  3
"AutoCAD"
 90
        0
280
           0
281
           1
  0
CLASS
  1
IMAGE
  2
AcDbRasterImage
  3
ISM
 90
      127
280
           0
281
           1
  0
CLASS
  1
OLE2FRAME
  2
AcDbOle2Frame
  3
""
 90
        0
280
           0
281
           1
  0
CLASS
  1
HATCH
  2
AcDbHatch
  3
"ACAD_SEDONA"
 90
        0
280
           0
281
           1
  0
CLASS
  1
DICTIONARYVAR
  2
AcDbDictionaryVar
  3
"AutoCAD"
 90
        0
280
           0
281
           0
  0
CLASS
  1
RASTERVARIABLES
  2
AcDbRasterVariables
  3
ISM
 90
        0
280
           0
281
           0
  0
CLASS
  1
IMAGEDEF
  2
AcDbRasterImageDef
  3
ISM
 90
        0
280
           0
281
           0
  0
CLASS
  1
IMAGEDEF_REACTOR
  2
AcDbRasterImageDefReactor
  3
ISM
 90
        1
280
           0
281
           0
  0
CLASS
  1
IDBUFFER
  2
AcDbIdBuffer
  3
"Acad"
 90
        0
280
           0
281
           0
  0
CLASS
  1
SPATIAL_FILTER
  2
AcDbSpatialFilter
  3
"Acad"
 90
        0
280
           0
281
           0
  0
CLASS
  1
XRECORD
  2
AcDbXrecord
  3
"<Built In>"
 90
        0
280
           0
281
           0
  0
CLASS
  1
SORTENTSTABLE
  2
AcDbSortentsTable
  3
"AutoCAD"
 90
        0
280
           0
281
           0
  0
CLASS
  1
LAYER_INDEX
  2
AcDbLayerIndex
  3
"Acad"
 90
        0
280
           0
281
           0
  0
CLASS
  1
SPATIAL_INDEX
  2
AcDbSpatialIndex
  3
"Acad"
 90
        0
280
           0
281
           0
  0
CLASS
  1
OBJECT_PTR
  2
CAseDLPNTableRecord
  3
"ASE-LPNTableRecord"
 90
        1
280
           0
281
           0
  0
CLASS
  1
LAYOUT
  2
AcDbLayout
  3
"AutoCAD 2000"
 90
        1
280
           0
281
           0
  0
CLASS
  1
PLOTSETTINGS
  2
AcDbPlotSettings
  3
"AutoCAD 2000"
 90
        1
280
           0
281
           0
  0
CLASS
  1
ACDBDICTIONARYWDFLT
  2
AcDbDictionaryWithDefault
  3
"AutoCAD 2000"
 90
        1
280
           0
281
           0
  0
CLASS
  1
ACDBPLACEHOLDER
  2
AcDbPlaceHolder
  3
"AutoCAD 2000"
 90
        1
280
           0
281
           0
  0
CLASS
  1
VBA_PROJECT
  2
AcDbVbaProject
  3
"acadvba"
 90
        1
280
           0
281
           0
  0
CLASS
  1
WIPEOUT
  2
AcDbWipeout
  3
WipeOut|AutoCAD Express Tool|expresstools@autodesk.com
 90
      127
280
           0
281
           1
  0
CLASS
  1
WIPEOUTVARIABLES
  2
AcDbWipeoutVariables
  3
WipeOut|AutoCAD Express Tool|expresstools@autodesk.com
 90
        0
280
           0
281
           0
  0
CLASS
  1
RTEXT
  2
RText
  3
RText|AutoCAD Express Tool|expresstools@autodesk.com
 90
        0
280
           0
281
           1
  0
CLASS
  1
ARCALIGNEDTEXT
  2
AcDbArcAlignedText
  3
ATEXT|AutoCAD Express Tool|expresstools@autodesk.com
 90
        0
280
           0
281
           1
  0
ENDSEC
  0
SECTION
  2
TABLES
  0
TABLE
  2
VPORT
  5
7
100
AcDbSymbolTable
 70
           1
  0
VPORT
  5
15
100
AcDbSymbolTableRecord
100
AcDbViewportTableRecord
  2
*ACTIVE
 70
           0
 10
0.0
 20
0.0
 11
1.0
 21
1.0
 12
6.591288
 22
4.579184
 13
0.0
 23
0.0
 14
1.0
 24
1.0
 15
0.0
 25
0.0
 16
0.0
 26
0.0
 36
1.0
 17
0.0
 27
0.0
 37
0.0
 40
9.158369
 41
0.688564
 42
50.0
 43
0.0
 44
0.0
 50
0.0
 51
0.0
 71
           0
 72
         100
 73
           1
 74
           1
 75
           0
 76
           0
 77
           0
 78
           0
  0
ENDTAB
  0
TABLE
  2
LTYPE
  5
4
100
AcDbSymbolTable
 70
          10
  0
LTYPE
  5
11
100
AcDbSymbolTableRecord
100
AcDbLinetypeTableRecord
  2
BYBLOCK
 70
          64
  3

 72
          65
 73
           0
 40
0.0
  0
LTYPE
  5
12
100
AcDbSymbolTableRecord
100
AcDbLinetypeTableRecord
  2
BYLAYER
 70
          64
  3

 72
          65
 73
           0
 40
0.0
  0
LTYPE
  5
13
100
AcDbSymbolTableRecord
100
AcDbLinetypeTableRecord
  2
CONTINUOUS
 70
          64
  3
Solid line
 72
          65
 73
           0
 40
0.0
  0
LTYPE
  5
1D
100
AcDbSymbolTableRecord
100
AcDbLinetypeTableRecord
  2
DASHED
 70
          64
  3
Dashed
 72
          65
 73
           2
 40
15.0
 49
12.0
 74
           0
 49
-3.0
 74
           0
  0
LTYPE
  5
1E
100
AcDbSymbolTableRecord
100
AcDbLinetypeTableRecord
  2
DOTTED
 70
          64
  3
Dotted
 72
          65
 73
           2
 40
3.5
 49
0.5
 74
           0
 49
-3.0
 74
           0
  0
LTYPE
  5
1F
100
AcDbSymbolTableRecord
100
AcDbLinetypeTableRecord
  2
DOT_CENTER
 70
          64
  3
Dot_Center
 72
          65
 73
           4
 40
2.0
 49
1.25
 74
           0
 49
-0.25
 74
           0
 49
0.25
 74
           0
 49
-0.25
 74
           0
  0
LTYPE
  5
20
100
AcDbSymbolTableRecord
100
AcDbLinetypeTableRecord
  2
LONG_DASHED
 70
          64
  3
Long_Dashed
 72
          65
 73
           2
 40
2.0
 49
1.5
 74
           0
 49
-0.5
 74
           0
  0
LTYPE
  5
21
100
AcDbSymbolTableRecord
100
AcDbLinetypeTableRecord
  2
DASH_CENTER
 70
          64
  3
Dash_Center
 72
          65
 73
           4
 40
36.0
 49
24.0
 74
           0
 49
-3.0
 74
           0
 49
6.0
 74
           0
 49
-3.0
 74
           0
  0
LTYPE
  5
22
100
AcDbSymbolTableRecord
100
AcDbLinetypeTableRecord
  2
PHANTOM
 70
          64
  3
Phantom
 72
          65
 73
           6
 40
2.5
 49
1.25
 74
           0
 49
-0.25
 74
           0
 49
0.25
 74
           0
 49
-0.25
 74
           0
 49
0.25
 74
           0
 49
-0.25
 74
           0
  0
LTYPE
  5
23
100
AcDbSymbolTableRecord
100
AcDbLinetypeTableRecord
  2
CENTER_DASH_DASH
 70
          64
  3
Center_Dash_Dash
 72
          65
 73
           6
 40
22.0
 49
12.0
 74
           0
 49
-3.0
 74
           0
 49
0.5
 74
           0
 49
-3.0
 74
           0
 49
0.5
 74
           0
 49
-3.0
 74
           0
  0
ENDTAB
  0
TABLE
  2
LAYER
  5
2
100
AcDbSymbolTable
 70
           4
  0
LAYER
  5
14
100
AcDbSymbolTableRecord
100
AcDbLayerTableRecord
  2
0
 70
           0
 62
           7
  6
CONTINUOUS
  0
LAYER
  5
24
100
AcDbSymbolTableRecord
100
AcDbLayerTableRecord
  2
MITTELLINIEN
 70
           0
 62
           7
  6
CONTINUOUS
  0
LAYER
  5
25
100
AcDbSymbolTableRecord
100
AcDbLayerTableRecord
  2
1
 70
           0
 62
           7
  6
CONTINUOUS
  0
LAYER
  5
26
100
AcDbSymbolTableRecord
100
AcDbLayerTableRecord
  2
WANNE
 70
           0
 62
           7
  6
CONTINUOUS
  0
ENDTAB
  0
TABLE
  2
STYLE
  5
3
100
AcDbSymbolTable
 70
           2
  0
STYLE
  5
17
100
AcDbSymbolTableRecord
100
AcDbTextStyleTableRecord
  2
STANDARD
 70
           0
 40
0.0
 41
1.0
 50
0.0
 71
           0
 42
0.0
  3
txt
  4

  0
STYLE
  5
106
100
AcDbSymbolTableRecord
100
AcDbTextStyleTableRecord
  2
CONVERTER_1
 70
           0
 40
0.0
 41
0.71262
 50
0.0
 71
           0
 42
0.0
  3
txt.shx
  4

  0
ENDTAB
  0
TABLE
  2
VIEW
  5
5
100
AcDbSymbolTable
 70
           0
  0
ENDTAB
  0
TABLE
  2
UCS
  5
6
100
AcDbSymbolTable
 70
           0
  0
ENDTAB
  0
TABLE
  2
APPID
  5
8
100
AcDbSymbolTable
 70
           1
  0
APPID
  5
16
100
AcDbSymbolTableRecord
100
AcDbRegAppTableRecord
  2
ACAD
 70
           0
  0
ENDTAB
  0
TABLE
  2
DIMSTYLE
  5
9
100
AcDbSymbolTable
 70
           1
  0
DIMSTYLE
105
18
100
AcDbSymbolTableRecord
100
AcDbDimStyleTableRecord
  2
STANDARD
 70
           0
  3

  4

  5

  6

  7

 40
1.0
 41
0.18
 42
0.0625
 43
0.38
 44
0.18
 45
0.0
 46
0.0
 47
0.0
 48
0.0
 71
           0
 72
           0
 73
           1
 74
           1
 75
           0
 76
           0
 77
           0
 78
           0
140
0.18
141
0.09
142
0.0
143
25.4
144
1.0
145
0.0
146
1.0
147
0.09
170
           0
171
           2
172
           0
173
           0
174
           0
175
           0
176
           0
177
           0
178
           0
270
           2
271
           4
272
           4
273
           2
274
           2
275
           0
280
           0
281
           0
282
           0
283
           1
284
           0
285
           0
286
           0
287
           0
288
           0
340
17
  0
ENDTAB
  0
TABLE
  2
BLOCK_RECORD
  5
1
100
AcDbSymbolTable
 70
           2
  0
BLOCK_RECORD
  5
A
100
AcDbSymbolTableRecord
100
AcDbBlockTableRecord
  2
*MODEL_SPACE
  0
BLOCK_RECORD
  5
B
100
AcDbSymbolTableRecord
100
AcDbBlockTableRecord
  2
*PAPER_SPACE
  0
BLOCK_RECORD
  5
27
100
AcDbSymbolTableRecord
100
AcDbBlockTableRecord
  2
DLX
  0
BLOCK_RECORD
  5
29
100
AcDbSymbolTableRecord
100
AcDbBlockTableRecord
  2
WANNE_SMART_LINE_39
  0
ENDTAB
  0
ENDSEC
  0
SECTION
  2
BLOCKS
  0
BLOCK
  5
D
100
AcDbEntity
  8
0
100
AcDbBlockBegin
  2
*MODEL_SPACE
 70
           0
 10
0.0
 20
0.0
 30
0.0
  3
*MODEL_SPACE
  1

  0
ENDBLK
  5
E
100
AcDbEntity
  8
0
100
AcDbBlockEnd
  0
BLOCK
  5
F
100
AcDbEntity
 67
           1
  8
0
100
AcDbBlockBegin
  2
*PAPER_SPACE
 70
           0
 10
0.0
 20
0.0
 30
0.0
  3
*PAPER_SPACE
  1

  0
ENDBLK
  5
10
100
AcDbEntity
 67
           1
  8
0
100
AcDbBlockEnd
  0
BLOCK
  5
28
100
AcDbEntity
  8
0
100
AcDbBlockBegin
  2
DLX
 70
           0
 10
0.0
 20
0.0
 30
0.0
  3
DLX
  1

  0
CIRCLE
  5
E2
100
AcDbEntity
  8
1
  6
CONTINUOUS
 62
           3
100
AcDbCircle
 10
622.735875237937
 20
550.878787878755
 40
5.530127989696
  0
CIRCLE
  5
E1
100
AcDbEntity
  8
1
  6
CONTINUOUS
 62
           3
100
AcDbCircle
 10
622.735875237937
 20
550.878787878755
 40
5.972862778754
  0
ARC
  5
E0
100
AcDbEntity
  8
1
  6
CONTINUOUS
 62
           3
100
AcDbCircle
 10
623.514586791596
 20
549.362233682226
 40
1.391870091328
100
AcDbArc
 50
-1.298612665727
 51
66.544866494045
  0
ARC
  5
DF
100
AcDbEntity
  8
1
  6
CONTINUOUS
 62
           3
100
AcDbCircle
 10
622.789193605106
 20
549.053039389822
 40
1.155889798232
100
AcDbArc
 50
0.985058170485
 51
82.918254632932
  0
ARC
  5
DE
100
AcDbEntity
  8
1
  6
CONTINUOUS
 62
           3
100
AcDbCircle
 10
622.864376243302
 20
552.264025930551
 40
1.257687287767
100
AcDbArc
 50
-74.800419047057
 51
80.931395238788
  0
ARC
  5
DD
100
AcDbEntity
  8
1
  6
CONTINUOUS
 62
           3
100
AcDbCircle
 10
622.942694069316
 20
552.303919921381
 40
2.009798008862
100
AcDbArc
 50
-55.929988464572
 51
86.297888718258
  0
LINE
  5
DC
100
AcDbEntity
  8
1
  6
CONTINUOUS
 62
           3
100
AcDbLine
 10
621.206636135699
 20
553.505992531278
 11
621.206636135699
 21
551.050334541276
  0
LINE
  5
DB
100
AcDbEntity
  8
1
  6
CONTINUOUS
 62
           3
100
AcDbLine
 10
623.062609127785
 20
553.505992531278
 11
621.206636135699
 21
553.505992531278
  0
LINE
  5
DA
100
AcDbEntity
  8
1
  6
CONTINUOUS
 62
           3
100
AcDbLine
 10
621.206636135699
 20
551.050334541276
 11
623.194119363641
 21
551.050334541276
  0
LINE
  5
D9
100
AcDbEntity
  8
1
  6
CONTINUOUS
 62
           3
100
AcDbLine
 10
621.206636135699
 20
547.451055788282
 11
620.334188436584
 21
547.451055788282
  0
LINE
  5
D8
100
AcDbEntity
  8
1
  6
CONTINUOUS
 62
           3
100
AcDbLine
 10
622.931697837317
 20
550.200111213842
 11
621.206636135699
 21
550.200111213842
  0
LINE
  5
D7
100
AcDbEntity
  8
1
  6
CONTINUOUS
 62
           3
100
AcDbLine
 10
623.944912577237
 20
547.451055788282
 11
623.944912577237
 21
549.0729110559
  0
LINE
  5
D6
100
AcDbEntity
  8
1
  6
CONTINUOUS
 62
           3
100
AcDbLine
 10
624.906099392742
 20
547.451055788282
 11
623.944912577237
 21
547.451055788282
  0
LINE
  5
D5
100
AcDbEntity
  8
1
  6
CONTINUOUS
 62
           3
100
AcDbLine
 10
624.906099392742
 20
549.330689554626
 11
624.906099392742
 21
547.451055788282
  0
LINE
  5
D4
100
AcDbEntity
  8
1
  6
CONTINUOUS
 62
           3
100
AcDbLine
 10
622.776108295824
 20
554.309523963456
 11
623.072464878176
 21
554.309523963456
  0
LINE
  5
D3
100
AcDbEntity
  8
1
  6
CONTINUOUS
 62
           3
100
AcDbLine
 10
620.334188436584
 20
554.309523963456
 11
622.776108295824
 21
554.309523963456
  0
LINE
  5
D2
100
AcDbEntity
  8
1
  6
CONTINUOUS
 62
           3
100
AcDbLine
 10
620.334188436584
 20
547.451055788282
 11
620.334188436584
 21
554.309523963456
  0
LINE
  5
D1
100
AcDbEntity
  8
1
  6
CONTINUOUS
 62
           3
100
AcDbLine
 10
621.206636135699
 20
550.200111213842
 11
621.206636135699
 21
547.451055788282
  0
LINE
  5
D0
100
AcDbEntity
  8
1
  6
CONTINUOUS
 62
           3
100
AcDbLine
 10
576.68540084903
 20
556.38450847832
 11
574.591323771416
 21
556.38450847832
  0
LINE
  5
CF
100
AcDbEntity
  8
1
  6
CONTINUOUS
 62
           3
100
AcDbLine
 10
573.975465701067
 20
545.323902417793
 11
576.68540084903
 21
556.38450847832
  0
LINE
  5
CE
100
AcDbEntity
  8
1
  6
CONTINUOUS
 62
           3
100
AcDbLine
 10
584.445851089087
 20
545.323902417793
 11
573.975465701067
 21
545.323902417793
  0
LINE
  5
CD
100
AcDbEntity
  8
1
  6
CONTINUOUS
 62
           3
100
AcDbLine
 10
583.903864059426
 20
543.111781205662
 11
584.445851089087
 21
545.323902417793
  0
LINE
  5
CC
100
AcDbEntity
  8
1
  6
CONTINUOUS
 62
           3
100
AcDbLine
 10
571.339401593847
 20
543.111781205662
 11
583.903864059426
 21
543.111781205662
  0
LINE
  5
CB
100
AcDbEntity
  8
1
  6
CONTINUOUS
 62
           3
100
AcDbLine
 10
574.591323771416
 20
556.38450847832
 11
571.339401593847
 21
543.111781205662
  0
LINE
  5
CA
100
AcDbEntity
  8
1
  6
CONTINUOUS
 62
           3
100
AcDbLine
 10
561.144653716558
 20
547.536023629844
 11
564.900368855924
 21
554.172387266269
  0
LINE
  5
C9
100
AcDbEntity
  8
1
  6
CONTINUOUS
 62
           3
100
AcDbLine
 10
565.957172001214
 20
554.172387266269
 11
564.900368855924
 21
554.172387266269
  0
LINE
  5
C8
100
AcDbEntity
  8
1
  6
CONTINUOUS
 62
           3
100
AcDbLine
 10
566.460964963069
 20
547.536023629844
 11
565.957172001214
 21
554.172387266269
  0
LINE
  5
C7
100
AcDbEntity
  8
1
  6
CONTINUOUS
 62
           3
100
AcDbLine
 10
561.144653716558
 20
547.536023629844
 11
566.460964963069
 21
547.536023629844
  0
LINE
  5
C6
100
AcDbEntity
  8
1
  6
CONTINUOUS
 62
           3
100
AcDbLine
 10
558.640843623664
 20
543.111781205662
 11
556.262046635093
 21
543.111781205662
  0
LINE
  5
C5
100
AcDbEntity
  8
1
  6
CONTINUOUS
 62
           3
100
AcDbLine
 10
559.892748670027
 20
545.323902417793
 11
558.640843623664
 21
543.111781205662
  0
LINE
  5
C4
100
AcDbEntity
  8
1
  6
CONTINUOUS
 62
           3
100
AcDbLine
 10
566.628895950391
 20
545.323902417793
 11
559.892748670027
 21
545.323902417793
  0
LINE
  5
C3
100
AcDbEntity
  8
1
  6
CONTINUOUS
 62
           3
100
AcDbLine
 10
566.796826937658
 20
543.111781205662
 11
566.628895950391
 21
545.323902417793
  0
LINE
  5
C2
100
AcDbEntity
  8
1
  6
CONTINUOUS
 62
           3
100
AcDbLine
 10
568.826509100727
 20
543.111781205662
 11
566.796826937658
 21
543.111781205662
  0
LINE
  5
C1
100
AcDbEntity
  8
1
  6
CONTINUOUS
 62
           3
100
AcDbLine
 10
567.818923176965
 20
556.38450847832
 11
568.826509100727
 21
543.111781205662
  0
LINE
  5
C0
100
AcDbEntity
  8
1
  6
CONTINUOUS
 62
           3
100
AcDbLine
 10
563.77347691399
 20
556.38450847832
 11
567.818923176965
 21
556.38450847832
  0
LINE
  5
BF
100
AcDbEntity
  8
1
  6
CONTINUOUS
 62
           3
100
AcDbLine
 10
556.262046635093
 20
543.111781205662
 11
563.77347691399
 21
556.38450847832
  0
LINE
  5
BE
100
AcDbEntity
  8
1
  6
CONTINUOUS
 62
           3
100
AcDbLine
 10
543.278768754059
 20
543.111781205662
 11
541.184691676499
 21
543.111781205662
  0
LINE
  5
BD
100
AcDbEntity
  8
1
  6
CONTINUOUS
 62
           3
100
AcDbLine
 10
546.084771050988
 20
554.564485538598
 11
543.278768754059
 21
543.111781205662
  0
LINE
  5
BC
100
AcDbEntity
  8
1
  6
CONTINUOUS
 62
           3
100
AcDbLine
 10
546.725319317498
 20
552.905394629535
 11
546.084771050988
 21
554.564485538598
  0
LINE
  5
BB
100
AcDbEntity
  8
1
  6
CONTINUOUS
 62
           3
100
AcDbLine
 10
550.506475653208
 20
543.111781205662
 11
546.725319317498
 21
552.905394629535
  0
LINE
  5
BA
100
AcDbEntity
  8
1
  6
CONTINUOUS
 62
           3
100
AcDbLine
 10
553.749154141977
 20
543.111781205662
 11
550.506475653208
 21
543.111781205662
  0
LINE
  5
B9
100
AcDbEntity
  8
1
  6
CONTINUOUS
 62
           3
100
AcDbLine
 10
557.001076319597
 20
556.38450847832
 11
553.749154141977
 21
543.111781205662
  0
LINE
  5
B8
100
AcDbEntity
  8
1
  6
CONTINUOUS
 62
           3
100
AcDbLine
 10
554.906999241983
 20
556.38450847832
 11
557.001076319597
 21
556.38450847832
  0
LINE
  5
B7
100
AcDbEntity
  8
1
  6
CONTINUOUS
 62
           3
100
AcDbLine
 10
552.06156733663
 20
544.770872114746
 11
554.906999241983
 21
556.38450847832
  0
LINE
  5
B6
100
AcDbEntity
  8
1
  6
CONTINUOUS
 62
           3
100
AcDbLine
 10
547.577729470355
 20
556.38450847832
 11
552.06156733663
 21
544.770872114746
  0
LINE
  5
B5
100
AcDbEntity
  8
1
  6
CONTINUOUS
 62
           3
100
AcDbLine
 10
544.436613854014
 20
556.38450847832
 11
547.577729470355
 21
556.38450847832
  0
LINE
  5
B4
100
AcDbEntity
  8
1
  6
CONTINUOUS
 62
           3
100
AcDbLine
 10
541.184691676499
 20
543.111781205662
 11
544.436613854014
 21
556.38450847832
  0
LINE
  5
B3
100
AcDbEntity
  8
1
  6
CONTINUOUS
 62
           3
100
AcDbLine
 10
541.923721360898
 20
556.38450847832
 11
539.829644283334
 21
556.38450847832
  0
LINE
  5
B2
100
AcDbEntity
  8
1
  6
CONTINUOUS
 62
           3
100
AcDbLine
 10
539.829644283334
 20
556.38450847832
 11
536.577722105769
 21
543.111781205662
  0
LINE
  5
B1
100
AcDbEntity
  8
1
  6
CONTINUOUS
 62
           3
100
AcDbLine
 10
538.671799183329
 20
543.111781205662
 11
541.923721360898
 21
556.38450847832
  0
LINE
  5
B0
100
AcDbEntity
  8
1
  6
CONTINUOUS
 62
           3
100
AcDbLine
 10
536.577722105769
 20
543.111781205662
 11
538.671799183329
 21
543.111781205662
  0
LINE
  5
AF
100
AcDbEntity
  8
1
  6
CONTINUOUS
 62
           3
100
AcDbLine
 10
534.084501950522
 20
551.739053932891
 11
536.178579028048
 21
551.739053932891
  0
LINE
  5
AE
100
AcDbEntity
  8
1
  6
CONTINUOUS
 62
           3
100
AcDbLine
 10
533.054726594372
 20
547.536023629844
 11
532.512739564605
 21
545.323902417793
  0
LINE
  5
AD
100
AcDbEntity
  8
1
  6
CONTINUOUS
 62
           3
100
AcDbLine
 10
528.866572438972
 20
547.536023629844
 11
533.054726594372
 21
547.536023629844
  0
LINE
  5
AC
100
AcDbEntity
  8
1
  6
CONTINUOUS
 62
           3
100
AcDbLine
 10
529.408559468619
 20
549.748144842033
 11
528.866572438972
 21
547.536023629844
  0
LINE
  5
AB
100
AcDbEntity
  8
1
  6
CONTINUOUS
 62
           3
100
AcDbLine
 10
535.690790701425
 20
549.748144842033
 11
534.064829612653
 21
543.111781205662
  0
LINE
  5
AA
100
AcDbEntity
  8
1
  6
CONTINUOUS
 62
           3
100
AcDbLine
 10
535.690790701425
 20
549.748144842033
 11
529.408559468619
 21
549.748144842033
  0
LINE
  5
A9
100
AcDbEntity
  8
1
  6
CONTINUOUS
 62
           3
100
AcDbLine
 10
524.136431254276
 20
545.323902417793
 11
526.304379372603
 21
554.172387266269
  0
LINE
  5
A8
100
AcDbEntity
  8
1
  6
CONTINUOUS
 62
           3
100
AcDbLine
 10
526.304379372603
 20
554.172387266269
 11
534.6806876829
 21
554.172387266269
  0
LINE
  5
A7
100
AcDbEntity
  8
1
  6
CONTINUOUS
 62
           3
100
AcDbLine
 10
534.6806876829
 20
554.172387266269
 11
534.084501950522
 21
551.739053932891
  0
LINE
  5
A6
100
AcDbEntity
  8
1
  6
CONTINUOUS
 62
           3
100
AcDbLine
 10
532.512739564605
 20
545.323902417793
 11
524.136431254276
 21
545.323902417793
  0
LINE
  5
A5
100
AcDbEntity
  8
1
  6
CONTINUOUS
 62
           3
100
AcDbLine
 10
534.064829612653
 20
543.111781205662
 11
521.50036714704
 21
543.111781205662
  0
LINE
  5
A4
100
AcDbEntity
  8
1
  6
CONTINUOUS
 62
           3
100
AcDbLine
 10
537.316751790175
 20
556.38450847832
 11
536.178579028048
 21
551.739053932891
  0
LINE
  5
A3
100
AcDbEntity
  8
1
  6
CONTINUOUS
 62
           3
100
AcDbLine
 10
524.752289324584
 20
556.38450847832
 11
537.316751790175
 21
556.38450847832
  0
LINE
  5
A2
100
AcDbEntity
  8
1
  6
CONTINUOUS
 62
           3
100
AcDbLine
 10
521.50036714704
 20
543.111781205662
 11
524.752289324584
 21
556.38450847832
  0
LINE
  5
A1
100
AcDbEntity
  8
1
  6
CONTINUOUS
 62
           3
100
AcDbLine
 10
518.987474654055
 20
543.111781205662
 11
522.239396831465
 21
556.38450847832
  0
LINE
  5
A0
100
AcDbEntity
  8
1
  6
CONTINUOUS
 62
           3
100
AcDbLine
 10
516.893397576336
 20
543.111781205662
 11
518.987474654055
 21
543.111781205662
  0
LINE
  5
9F
100
AcDbEntity
  8
1
  6
CONTINUOUS
 62
           3
100
AcDbLine
 10
520.145319753901
 20
556.38450847832
 11
516.893397576336
 21
543.111781205662
  0
LINE
  5
9E
100
AcDbEntity
  8
1
  6
CONTINUOUS
 62
           3
100
AcDbLine
 10
522.239396831465
 20
556.38450847832
 11
520.145319753901
 21
556.38450847832
  0
LINE
  5
9D
100
AcDbEntity
  8
1
  6
CONTINUOUS
 62
           3
100
AcDbLine
 10
503.910119695298
 20
543.111781205662
 11
504.994093754409
 21
547.536023629844
  0
LINE
  5
9C
100
AcDbEntity
  8
1
  6
CONTINUOUS
 62
           3
100
AcDbLine
 10
501.816042617622
 20
543.111781205662
 11
503.910119695298
 21
543.111781205662
  0
LINE
  5
9B
100
AcDbEntity
  8
1
  6
CONTINUOUS
 62
           3
100
AcDbLine
 10
515.328223469318
 20
546.979895810782
 11
514.380505083205
 21
543.111781205662
  0
LINE
  5
9A
100
AcDbEntity
  8
1
  6
CONTINUOUS
 62
           3
100
AcDbLine
 10
506.620054843184
 20
554.172387266269
 11
505.536080784001
 21
549.748144842033
  0
LINE
  5
99
100
AcDbEntity
  8
1
  6
CONTINUOUS
 62
           3
100
AcDbLine
 10
514.996363153703
 20
554.172387266269
 11
506.620054843184
 21
554.172387266269
  0
LINE
  5
98
100
AcDbEntity
  8
1
  6
CONTINUOUS
 62
           3
100
AcDbLine
 10
513.912389094381
 20
549.748144842033
 11
514.996363153703
 21
554.172387266269
  0
LINE
  5
97
100
AcDbEntity
  8
1
  6
CONTINUOUS
 62
           3
100
AcDbLine
 10
505.536080784001
 20
549.748144842033
 11
513.912389094381
 21
549.748144842033
  0
LINE
  5
96
100
AcDbEntity
  8
1
  6
CONTINUOUS
 62
           3
100
AcDbLine
 10
513.370402064938
 20
547.536023629844
 11
504.994093754409
 21
547.536023629844
  0
LINE
  5
95
100
AcDbEntity
  8
1
  6
CONTINUOUS
 62
           3
100
AcDbLine
 10
512.286428005566
 20
543.111781205662
 11
513.370402064938
 21
547.536023629844
  0
LINE
  5
94
100
AcDbEntity
  8
1
  6
CONTINUOUS
 62
           3
100
AcDbLine
 10
514.380505083205
 20
543.111781205662
 11
512.286428005566
 21
543.111781205662
  0
LINE
  5
93
100
AcDbEntity
  8
1
  6
CONTINUOUS
 62
           3
100
AcDbLine
 10
517.632427260738
 20
556.38450847832
 11
515.764903150884
 21
548.762204858332
  0
LINE
  5
92
100
AcDbEntity
  8
1
  6
CONTINUOUS
 62
           3
100
AcDbLine
 10
505.067964795158
 20
556.38450847832
 11
517.632427260738
 21
556.38450847832
  0
LINE
  5
91
100
AcDbEntity
  8
1
  6
CONTINUOUS
 62
           3
100
AcDbLine
 10
505.067964795158
 20
556.38450847832
 11
501.816042617622
 21
543.111781205662
  0
LINE
  5
90
100
AcDbEntity
  8
1
  6
CONTINUOUS
 62
           3
100
AcDbLine
 10
489.374751766132
 20
545.323902417793
 11
491.542699884474
 21
554.172387266269
  0
LINE
  5
8F
100
AcDbEntity
  8
1
  6
CONTINUOUS
 62
           3
100
AcDbLine
 10
491.542699884474
 20
554.172387266269
 11
499.919008194964
 21
554.172387266269
  0
LINE
  5
8E
100
AcDbEntity
  8
1
  6
CONTINUOUS
 62
           3
100
AcDbLine
 10
499.919008194964
 20
554.172387266269
 11
497.751060076487
 21
545.323902417793
  0
LINE
  5
8D
100
AcDbEntity
  8
1
  6
CONTINUOUS
 62
           3
100
AcDbLine
 10
497.751060076487
 20
545.323902417793
 11
489.374751766132
 21
545.323902417793
  0
LINE
  5
8C
100
AcDbEntity
  8
1
  6
CONTINUOUS
 62
           3
100
AcDbLine
 10
499.303150124491
 20
543.111781205662
 11
486.738687658966
 21
543.111781205662
  0
LINE
  5
8B
100
AcDbEntity
  8
1
  6
CONTINUOUS
 62
           3
100
AcDbLine
 10
502.555072302166
 20
556.38450847832
 11
499.303150124491
 21
543.111781205662
  0
LINE
  5
8A
100
AcDbEntity
  8
1
  6
CONTINUOUS
 62
           3
100
AcDbLine
 10
489.990609836448
 20
556.38450847832
 11
502.555072302166
 21
556.38450847832
  0
LINE
  5
89
100
AcDbEntity
  8
1
  6
CONTINUOUS
 62
           3
100
AcDbLine
 10
486.738687658966
 20
543.111781205662
 11
489.990609836448
 21
556.38450847832
  0
LINE
  5
88
100
AcDbEntity
  8
1
  6
CONTINUOUS
 62
           3
100
AcDbLine
 10
630.329503152207
 20
500.0
 11
577.738701733397
 21
500.0
  0
LINE
  5
87
100
AcDbEntity
  8
1
  6
CONTINUOUS
 62
           3
100
AcDbLine
 10
627.928830785688
 20
506.19393939391
 11
585.119681233515
 21
506.19393939391
  0
LINE
  5
86
100
AcDbEntity
  8
1
  6
CONTINUOUS
 62
           3
100
AcDbLine
 10
627.928830785688
 20
506.19393939391
 11
630.329503152207
 21
500.0
  0
LINE
  5
85
100
AcDbEntity
  8
1
  6
CONTINUOUS
 62
           3
100
AcDbLine
 10
620.686830708906
 20
524.878917066824
 11
617.906977584949
 21
532.051175145079
  0
LINE
  5
84
100
AcDbEntity
  8
1
  6
CONTINUOUS
 62
           3
100
AcDbLine
 10
626.284056889192
 20
532.051175145079
 11
620.686830708906
 21
524.878917066824
  0
LINE
  5
83
100
AcDbEntity
  8
1
  6
CONTINUOUS
 62
           3
100
AcDbLine
 10
630.32950315225
 20
532.051175145079
 11
626.284056889192
 21
532.051175145079
  0
LINE
  5
82
100
AcDbEntity
  8
1
  6
CONTINUOUS
 62
           3
100
AcDbLine
 10
622.029273107168
 20
521.415301218603
 11
630.32950315225
 21
532.051175145079
  0
LINE
  5
81
100
AcDbEntity
  8
1
  6
CONTINUOUS
 62
           3
100
AcDbLine
 10
626.899971200172
 20
508.848484848477
 11
622.029273107168
 21
521.415301218603
  0
LINE
  5
80
100
AcDbEntity
  8
1
  6
CONTINUOUS
 62
           3
100
AcDbLine
 10
622.854524937124
 20
508.848484848477
 11
626.899971200172
 21
508.848484848477
  0
LINE
  5
7F
100
AcDbEntity
  8
1
  6
CONTINUOUS
 62
           3
100
AcDbLine
 10
619.32626924244
 20
517.951685370502
 11
622.854524937124
 21
508.848484848477
  0
LINE
  5
7E
100
AcDbEntity
  8
1
  6
CONTINUOUS
 62
           3
100
AcDbLine
 10
612.222136662338
 20
508.848484848477
 11
619.32626924244
 21
517.951685370502
  0
LINE
  5
7D
100
AcDbEntity
  8
1
  6
CONTINUOUS
 62
           3
100
AcDbLine
 10
608.176690399341
 20
508.848484848477
 11
612.222136662338
 21
508.848484848477
  0
LINE
  5
7C
100
AcDbEntity
  8
1
  6
CONTINUOUS
 62
           3
100
AcDbLine
 10
617.983826844131
 20
521.415301218661
 11
608.176690399341
 21
508.848484848477
  0
LINE
  5
7B
100
AcDbEntity
  8
1
  6
CONTINUOUS
 62
           3
100
AcDbLine
 10
613.861531321934
 20
532.051175145079
 11
617.983826844131
 21
521.415301218661
  0
LINE
  5
7A
100
AcDbEntity
  8
1
  6
CONTINUOUS
 62
           3
100
AcDbLine
 10
617.906977584949
 20
532.051175145079
 11
613.861531321934
 21
532.051175145079
  0
LINE
  5
79
100
AcDbEntity
  8
1
  6
CONTINUOUS
 62
           3
100
AcDbLine
 10
600.878253440889
 20
532.051175145079
 11
595.643060746967
 21
532.051175145079
  0
LINE
  5
78
100
AcDbEntity
  8
1
  6
CONTINUOUS
 62
           3
100
AcDbLine
 10
596.277386577538
 20
513.272727272797
 11
600.878253440889
 21
532.051175145079
  0
LINE
  5
77
100
AcDbEntity
  8
1
  6
CONTINUOUS
 62
           3
100
AcDbLine
 10
601.51257927149
 20
513.272727272797
 11
596.277386577538
 21
513.272727272797
  0
LINE
  5
76
100
AcDbEntity
  8
1
  6
CONTINUOUS
 62
           3
100
AcDbLine
 10
606.113446134885
 20
532.051175145079
 11
601.51257927149
 21
513.272727272797
  0
LINE
  5
75
100
AcDbEntity
  8
1
  6
CONTINUOUS
 62
           3
100
AcDbLine
 10
611.348638828808
 20
532.051175145079
 11
606.113446134885
 21
532.051175145079
  0
LINE
  5
74
100
AcDbEntity
  8
1
  6
CONTINUOUS
 62
           3
100
AcDbLine
 10
605.6637979062
 20
508.848484848477
 11
611.348638828808
 21
532.051175145079
  0
LINE
  5
73
100
AcDbEntity
  8
1
  6
CONTINUOUS
 62
           3
100
AcDbLine
 10
589.958219824279
 20
508.848484848477
 11
605.6637979062
 21
508.848484848477
  0
LINE
  5
72
100
AcDbEntity
  8
1
  6
CONTINUOUS
 62
           3
100
AcDbLine
 10
595.643060746967
 20
532.051175145079
 11
589.958219824279
 21
508.848484848477
  0
LINE
  5
71
100
AcDbEntity
  8
1
  6
CONTINUOUS
 62
           3
100
AcDbLine
 10
588.301425922338
 20
543.111781205662
 11
577.738701733397
 21
500.0
  0
LINE
  5
70
100
AcDbEntity
  8
1
  6
CONTINUOUS
 62
           3
100
AcDbLine
 10
594.164841739606
 20
543.111781205662
 11
588.301425922338
 21
543.111781205662
  0
LINE
  5
6F
100
AcDbEntity
  8
1
  6
CONTINUOUS
 62
           3
100
AcDbLine
 10
585.119681233515
 20
506.19393939391
 11
594.164841739606
 21
543.111781205662
  0
LINE
  5
6E
100
AcDbEntity
  8
1
  6
CONTINUOUS
 62
           3
100
AcDbLine
 10
450.0
 20
500.0
 11
457.852789041055
 21
532.051175145079
  0
LINE
  5
6D
100
AcDbEntity
  8
1
  6
CONTINUOUS
 62
           3
100
AcDbLine
 10
457.852789041055
 20
532.051175145079
 11
464.135020273752
 21
532.051175145079
  0
LINE
  5
6C
100
AcDbEntity
  8
1
  6
CONTINUOUS
 62
           3
100
AcDbLine
 10
464.135020273752
 20
532.051175145079
 11
457.366205292063
 21
504.424242424182
  0
LINE
  5
6B
100
AcDbEntity
  8
1
  6
CONTINUOUS
 62
           3
100
AcDbLine
 10
457.366205292063
 20
504.424242424182
 11
462.601397985942
 21
504.424242424182
  0
LINE
  5
6A
100
AcDbEntity
  8
1
  6
CONTINUOUS
 62
           3
100
AcDbLine
 10
462.601397985942
 20
504.424242424182
 11
470.725180541824
 21
537.581478175405
  0
LINE
  5
69
100
AcDbEntity
  8
1
  6
CONTINUOUS
 62
           3
100
AcDbLine
 10
470.725180541824
 20
537.581478175405
 11
453.03408469729
 21
537.581478175405
  0
LINE
  5
68
100
AcDbEntity
  8
1
  6
CONTINUOUS
 62
           3
100
AcDbLine
 10
453.03408469729
 20
537.581478175405
 11
454.389052271275
 21
543.111781205662
  0
LINE
  5
67
100
AcDbEntity
  8
1
  6
CONTINUOUS
 62
           3
100
AcDbLine
 10
454.389052271275
 20
543.111781205662
 11
478.362379348568
 21
543.111781205662
  0
LINE
  5
66
100
AcDbEntity
  8
1
  6
CONTINUOUS
 62
           3
100
AcDbLine
 10
478.362379348568
 20
543.111781205662
 11
467.799655159648
 21
500.0
  0
LINE
  5
65
100
AcDbEntity
  8
1
  6
CONTINUOUS
 62
           3
100
AcDbLine
 10
467.799655159648
 20
500.0
 11
450.0
 21
500.0
  0
LINE
  5
64
100
AcDbEntity
  8
1
  6
CONTINUOUS
 62
           3
100
AcDbLine
 10
471.987809314774
 20
500.0
 11
479.840598355768
 21
532.051175145079
  0
LINE
  5
63
100
AcDbEntity
  8
1
  6
CONTINUOUS
 62
           3
100
AcDbLine
 10
479.840598355768
 20
532.051175145079
 11
486.122829588578
 21
532.051175145079
  0
LINE
  5
62
100
AcDbEntity
  8
1
  6
CONTINUOUS
 62
           3
100
AcDbLine
 10
486.122829588578
 20
532.051175145079
 11
479.354014606783
 21
504.424242424182
  0
LINE
  5
61
100
AcDbEntity
  8
1
  6
CONTINUOUS
 62
           3
100
AcDbLine
 10
479.354014606783
 20
504.424242424182
 11
484.589207300767
 21
504.424242424182
  0
LINE
  5
60
100
AcDbEntity
  8
1
  6
CONTINUOUS
 62
           3
100
AcDbLine
 10
484.589207300767
 20
504.424242424182
 11
491.358022282573
 21
532.051175145079
  0
LINE
  5
5F
100
AcDbEntity
  8
1
  6
CONTINUOUS
 62
           3
100
AcDbLine
 10
489.787464474364
 20
500.0
 11
471.987809314774
 21
500.0
  0
LINE
  5
5E
100
AcDbEntity
  8
1
  6
CONTINUOUS
 62
           3
100
AcDbLine
 10
491.358022282573
 20
532.051175145079
 11
497.640253515379
 21
532.051175145079
  0
LINE
  5
5D
100
AcDbEntity
  8
1
  6
CONTINUOUS
 62
           3
100
AcDbLine
 10
497.640253515379
 20
532.051175145079
 11
489.787464474364
 21
500.0
  0
LINE
  5
5C
100
AcDbEntity
  8
1
  6
CONTINUOUS
 62
           3
100
AcDbLine
 10
518.581024291314
 20
532.051175145079
 11
501.828407670542
 21
532.051175145079
  0
LINE
  5
5B
100
AcDbEntity
  8
1
  6
CONTINUOUS
 62
           3
100
AcDbLine
 10
501.828407670542
 20
532.051175145079
 11
497.227540807151
 21
513.272727272797
  0
LINE
  5
5A
100
AcDbEntity
  8
1
  6
CONTINUOUS
 62
           3
100
AcDbLine
 10
497.227540807151
 20
513.272727272797
 11
507.697926195117
 21
513.272727272797
  0
LINE
  5
59
100
AcDbEntity
  8
1
  6
CONTINUOUS
 62
           3
100
AcDbLine
 10
507.697926195117
 20
513.272727272797
 11
505.529978076698
 21
504.424242424182
  0
LINE
  5
58
100
AcDbEntity
  8
1
  6
CONTINUOUS
 62
           3
100
AcDbLine
 10
505.529978076698
 20
504.424242424182
 11
495.059592688787
 21
504.424242424182
  0
LINE
  5
57
100
AcDbEntity
  8
1
  6
CONTINUOUS
 62
           3
100
AcDbLine
 10
495.059592688787
 20
504.424242424182
 11
493.97561862948
 21
500.0
  0
LINE
  5
56
100
AcDbEntity
  8
1
  6
CONTINUOUS
 62
           3
100
AcDbLine
 10
493.97561862948
 20
500.0
 11
510.728235250302
 21
500.0
  0
LINE
  5
55
100
AcDbEntity
  8
1
  6
CONTINUOUS
 62
           3
100
AcDbLine
 10
510.728235250302
 20
500.0
 11
515.064131487226
 21
517.696969696953
  0
LINE
  5
54
100
AcDbEntity
  8
1
  6
CONTINUOUS
 62
           3
100
AcDbLine
 10
515.064131487226
 20
517.696969696953
 11
504.593746099163
 21
517.696969696953
  0
LINE
  5
53
100
AcDbEntity
  8
1
  6
CONTINUOUS
 62
           3
100
AcDbLine
 10
504.593746099163
 20
517.696969696953
 11
507.026664844176
 21
527.626932720839
  0
LINE
  5
52
100
AcDbEntity
  8
1
  6
CONTINUOUS
 62
           3
100
AcDbLine
 10
507.026664844176
 20
527.626932720839
 11
517.497050232156
 21
527.626932720839
  0
LINE
  5
51
100
AcDbEntity
  8
1
  6
CONTINUOUS
 62
           3
100
AcDbLine
 10
517.497050232156
 20
527.626932720839
 11
518.581024291314
 21
532.051175145079
  0
LINE
  5
50
100
AcDbEntity
  8
1
  6
CONTINUOUS
 62
           3
100
AcDbLine
 10
536.811859919322
 20
520.990569084413
 11
539.521795067252
 21
532.051175145079
  0
LINE
  5
4F
100
AcDbEntity
  8
1
  6
CONTINUOUS
 62
           3
100
AcDbLine
 10
539.521795067252
 20
532.051175145079
 11
522.769178446531
 21
532.051175145079
  0
LINE
  5
4E
100
AcDbEntity
  8
1
  6
CONTINUOUS
 62
           3
100
AcDbLine
 10
522.769178446531
 20
532.051175145079
 11
514.916389405538
 21
500.0
  0
LINE
  5
4D
100
AcDbEntity
  8
1
  6
CONTINUOUS
 62
           3
100
AcDbLine
 10
514.916389405538
 20
500.0
 11
531.669006026292
 21
500.0
  0
LINE
  5
4C
100
AcDbEntity
  8
1
  6
CONTINUOUS
 62
           3
100
AcDbLine
 10
531.669006026292
 20
500.0
 11
534.378941174266
 21
511.060606060608
  0
LINE
  5
4B
100
AcDbEntity
  8
1
  6
CONTINUOUS
 62
           3
100
AcDbLine
 10
534.378941174266
 20
511.060606060608
 11
528.096709941478
 21
511.060606060608
  0
LINE
  5
4A
100
AcDbEntity
  8
1
  6
CONTINUOUS
 62
           3
100
AcDbLine
 10
528.096709941478
 20
511.060606060608
 11
526.470748852691
 21
504.424242424182
  0
LINE
  5
49
100
AcDbEntity
  8
1
  6
CONTINUOUS
 62
           3
100
AcDbLine
 10
526.470748852691
 20
504.424242424182
 11
522.282594697488
 21
504.424242424182
  0
LINE
  5
48
100
AcDbEntity
  8
1
  6
CONTINUOUS
 62
           3
100
AcDbLine
 10
522.282594697488
 20
504.424242424182
 11
527.967435620118
 21
527.626932720839
  0
LINE
  5
47
100
AcDbEntity
  8
1
  6
CONTINUOUS
 62
           3
100
AcDbLine
 10
527.967435620118
 20
527.626932720839
 11
532.15558977531
 21
527.626932720839
  0
LINE
  5
46
100
AcDbEntity
  8
1
  6
CONTINUOUS
 62
           3
100
AcDbLine
 10
532.15558977531
 20
527.626932720839
 11
530.529628686516
 21
520.990569084413
  0
LINE
  5
45
100
AcDbEntity
  8
1
  6
CONTINUOUS
 62
           3
100
AcDbLine
 10
530.529628686516
 20
520.990569084413
 11
536.811859919322
 21
520.990569084413
  0
LINE
  5
44
100
AcDbEntity
  8
1
  6
CONTINUOUS
 62
           3
100
AcDbLine
 10
535.857160181473
 20
500.0
 11
542.139391414261
 21
500.0
  0
LINE
  5
43
100
AcDbEntity
  8
1
  6
CONTINUOUS
 62
           3
100
AcDbLine
 10
552.609776802336
 20
500.0
 11
560.462565843351
 21
532.051175145079
  0
LINE
  5
42
100
AcDbEntity
  8
1
  6
CONTINUOUS
 62
           3
100
AcDbLine
 10
546.327545569439
 20
500.0
 11
549.711953060334
 21
513.813466360341
  0
LINE
  5
41
100
AcDbEntity
  8
1
  6
CONTINUOUS
 62
           3
100
AcDbLine
 10
542.139391414261
 20
500.0
 11
545.523798905146
 21
513.813466360341
  0
LINE
  5
40
100
AcDbEntity
  8
1
  6
CONTINUOUS
 62
           3
100
AcDbLine
 10
543.709949222466
 20
532.051175145079
 11
535.857160181473
 21
500.0
  0
LINE
  5
3F
100
AcDbEntity
  8
1
  6
CONTINUOUS
 62
           3
100
AcDbLine
 10
560.462565843351
 20
532.051175145079
 11
554.180334610435
 21
532.051175145079
  0
LINE
  5
3E
100
AcDbEntity
  8
1
  6
CONTINUOUS
 62
           3
100
AcDbLine
 10
556.797930957462
 20
500.0
 11
573.55054757827
 21
500.0
  0
LINE
  5
3D
100
AcDbEntity
  8
1
  6
CONTINUOUS
 62
           3
100
AcDbLine
 10
568.352290404568
 20
504.424242424182
 11
564.164136249467
 21
504.424242424182
  0
LINE
  5
3C
100
AcDbEntity
  8
1
  6
CONTINUOUS
 62
           3
100
AcDbLine
 10
564.650719998459
 20
532.051175145079
 11
556.797930957462
 21
500.0
  0
LINE
  5
3B
100
AcDbEntity
  8
1
  6
CONTINUOUS
 62
           3
100
AcDbLine
 10
564.164136249467
 20
504.424242424182
 11
569.848977172042
 21
527.626932720839
  0
LINE
  5
3A
100
AcDbEntity
  8
1
  6
CONTINUOUS
 62
           3
100
AcDbLine
 10
581.403336619289
 20
532.051175145079
 11
564.650719998459
 21
532.051175145079
  0
LINE
  5
39
100
AcDbEntity
  8
1
  6
CONTINUOUS
 62
           3
100
AcDbLine
 10
569.848977172042
 20
527.626932720839
 11
574.037131327292
 21
527.626932720839
  0
LINE
  5
38
100
AcDbEntity
  8
1
  6
CONTINUOUS
 62
           3
100
AcDbLine
 10
574.037131327292
 20
527.626932720839
 11
568.352290404568
 21
504.424242424182
  0
LINE
  5
37
100
AcDbEntity
  8
1
  6
CONTINUOUS
 62
           3
100
AcDbLine
 10
581.403336619289
 20
532.051175145079
 11
573.55054757827
 21
500.0
  0
LINE
  5
36
100
AcDbEntity
  8
1
  6
CONTINUOUS
 62
           3
100
AcDbLine
 10
549.992180455331
 20
532.051175145079
 11
543.709949222466
 21
532.051175145079
  0
LINE
  5
35
100
AcDbEntity
  8
1
  6
CONTINUOUS
 62
           3
100
AcDbLine
 10
546.327545569439
 20
500.0
 11
552.609776802336
 21
500.0
  0
LINE
  5
34
100
AcDbEntity
  8
1
  6
CONTINUOUS
 62
           3
100
AcDbLine
 10
545.523798905146
 20
513.813466360341
 11
549.711953060334
 21
513.813466360341
  0
LINE
  5
33
100
AcDbEntity
  8
1
  6
CONTINUOUS
 62
           3
100
AcDbLine
 10
546.607772964315
 20
518.237708784527
 11
550.795927119554
 21
518.237708784527
  0
LINE
  5
32
100
AcDbEntity
  8
1
  6
CONTINUOUS
 62
           3
100
AcDbLine
 10
546.607772964315
 20
518.237708784527
 11
549.992180455331
 21
532.051175145079
  0
LINE
  5
31
100
AcDbEntity
  8
1
  6
CONTINUOUS
 62
           3
100
AcDbLine
 10
550.795927119554
 20
518.237708784527
 11
554.180334610435
 21
532.051175145079
  0
LINE
  5
30
100
AcDbEntity
  8
1
  6
CONTINUOUS
 62
           3
100
AcDbLine
 10
515.764903150884
 20
548.762204858332
 11
515.032820381937
 21
547.978447872363
  0
LINE
  5
2F
100
AcDbEntity
  8
1
  6
CONTINUOUS
 62
           3
100
AcDbLine
 10
515.328223469318
 20
546.979895810782
 11
515.032820381937
 21
547.978447872363
  0
ENDBLK
  5
E3
100
AcDbEntity
  8
0
100
AcDbBlockEnd
  0
BLOCK
  5
2A
100
AcDbEntity
  8
0
100
AcDbBlockBegin
  2
WANNE_SMART_LINE_39
 70
           0
 10
0.0
 20
0.0
 30
0.0
  3
WANNE_SMART_LINE_39
  1

  0
ARC
  5
103
100
AcDbEntity
  8
1
  6
CONTINUOUS
 62
           7
100
AcDbCircle
 10
775.282360375419
 20
236.999999999998
 40
100.0
100
AcDbArc
 50
-90.0
 51
-79.992020198558
  0
ARC
  5
102
100
AcDbEntity
  8
1
  6
CONTINUOUS
 62
           7
100
AcDbCircle
 10
508.448331574188
 20
129.999999999998
 40
100.0
100
AcDbArc
 50
-90.0
 51
-79.992020198559
  0
SPLINE
  5
101
100
AcDbEntity
  8
1
  6
CONTINUOUS
 62
           7
100
AcDbSpline
210
0.0
220
0.0
230
1.0
 70
           0
 71
           3
 72
          41
 73
          38
 74
          77
 42
0.00000000001
 43
0.00000000001
 44
0.00000000001
 40
-1.7747031480311648
 40
-0.1491110169697549
 40
1.4764811140916005
 40
3.3442545556989982
 40
5.8688042616060994
 40
9.245333245945881
 40
13.458047720742229
 40
18.410297395420109
 40
23.970225639105475
 40
29.980492803509179
 40
36.267452290357014
 40
42.647709713833265
 40
48.934669200681661
 40
54.944936365085901
 40
60.50486460877184
 40
65.45711428344967
 40
69.669828758244932
 40
73.046357742585457
 40
75.570907448493188
 40
77.438680890100215
 40
79.064273021159863
 40
80.932046462766777
 40
83.45659616867384
 40
86.833125153014166
 40
91.045839627811617
 40
95.998089302490428
 40
101.5580175461758
 40
107.56828471057855
 40
113.85524419742684
 40
120.23550162090251
 40
126.52246110775098
 40
132.53272827215466
 40
138.09265651583945
 40
143.04490619051845
 40
147.25762066531433
 40
150.63414964965432
 40
153.15869935556293
 40
155.02647279717132
 40
156.65206492823194
 40
158.27765705929335
 40
159.9032491903547
 10
1304.399853582061
 20
189.35402644350191
 30
0.0
 10
1305.418855578057
 20
188.08746230824269
 30
0.0
 10
1307.3861385519031
 20
187.3247652799607
 30
0.0
 10
1310.2716886018461
 20
186.76604152023131
 30
0.0
 10
1314.0743427322559
 20
186.47319976571541
 30
0.0
 10
1318.685797954013
 20
186.4495938133457
 30
0.0
 10
1323.972685788493
 20
186.70354965017029
 30
0.0
 10
1329.7758081103359
 20
187.22911381902941
 30
0.0
 10
1335.919816149687
 20
188.0118069971295
 30
0.0
 10
1342.2185452869569
 20
189.02851543377321
 30
0.0
 10
1348.4810560303711
 20
190.2486154208375
 30
0.0
 10
1354.517574733369
 20
191.6349362159813
 30
0.0
 10
1360.1454015340739
 20
193.14490703659521
 30
0.0
 10
1365.194968157826
 20
194.73158704647469
 30
0.0
 10
1369.5148073051751
 20
196.34560880725101
 30
0.0
 10
1372.982622809413
 20
197.9331195496666
 30
0.0
 10
1375.4979268192651
 20
199.4535856191458
 30
0.0
 10
1377.080998624351
 20
200.84850236077591
 30
0.0
 10
1377.6001464179481
 20
202.3889683113789
 30
0.0
 10
1376.581144421956
 20
203.65553244663869
 30
0.0
 10
1374.613861448109
 20
204.41822947492119
 30
0.0
 10
1371.7283113981671
 20
204.97695323465061
 30
0.0
 10
1367.925657267755
 20
205.2697949891658
 30
0.0
 10
1363.3142020459979
 20
205.29340094153619
 30
0.0
 10
1358.0273142115161
 20
205.03944510471069
 30
0.0
 10
1352.224191889675
 20
204.5138809358518
 30
0.0
 10
1346.0801838503239
 20
203.7311877577522
 30
0.0
 10
1339.7814547130531
 20
202.714479321108
 30
0.0
 10
1333.518943969641
 20
201.4943793340444
 30
0.0
 10
1327.482425266641
 20
200.10805853889929
 30
0.0
 10
1321.854598465939
 20
198.59808771828739
 30
0.0
 10
1316.8050318421861
 20
197.01140770840721
 30
0.0
 10
1312.4851926948361
 20
195.3973859476298
 30
0.0
 10
1309.0173771905979
 20
193.80987520521469
 30
0.0
 10
1306.5020731807469
 20
192.2894091357357
 30
0.0
 10
1304.9190013756579
 20
190.8944923941049
 30
0.0
 10
1304.399853582061
 20
189.35402644350191
 30
0.0
 10
1305.418855578057
 20
188.08746230824269
 30
0.0
 11
1304.8740328775766
 21
188.76464733360558
 31
0.0
 11
1305.4917897343696
 21
188.17567702722977
 31
0.0
 11
1306.2554149037878
 21
187.7631361588281
 31
0.0
 11
1307.4120755601032
 21
187.37460087825335
 31
0.0
 11
1308.6206102328185
 21
187.08573679426377
 31
0.0
 11
1310.2818785561462
 21
186.8133932952521
 31
0.0
 11
1311.963526788074
 21
186.63575334628194
 31
0.0
 11
1314.0765574629054
 21
186.51112551693348
 31
0.0
 11
1316.1940175990349
 21
186.46234919002114
 31
0.0
 11
1318.6855113847894
 21
186.48269208066321
 31
0.0
 11
1321.1764320320974
 21
186.56923150594031
 31
0.0
 11
1323.9707787620725
 21
186.73310861271295
 31
0.0
 11
1326.7613114392075
 21
186.95610364457093
 31
0.0
 11
1329.7729046299089
 21
187.2564965605394
 31
0.0
 11
1332.7786908597554
 21
187.61165495952787
 31
0.0
 11
1335.9160769604325
 21
188.03792149613653
 31
0.0
 11
1339.0459846826004
 21
188.51641703075938
 31
0.0
 11
1342.2139846427779
 21
189.05412663271747
 31
0.0
 11
1345.3728633145975
 21
189.64305863256419
 31
0.0
 11
1348.4755506879478
 21
190.27441541695111
 31
0.0
 11
1351.5672273764512
 21
190.95737219356533
 31
0.0
 11
1354.510847258096
 21
191.66163801007193
 31
0.0
 11
1357.4410121891945
 21
192.41930741475971
 31
0.0
 11
1360.1369876291039
 21
193.17330730454307
 31
0.0
 11
1362.8161352590737
 21
193.98410773022215
 31
0.0
 11
1365.1838116433034
 21
194.76274967802374
 31
0.0
 11
1367.5291749984876
 21
195.60371688892332
 31
0.0
 11
1369.4996368067048
 21
196.38043873136024
 31
0.0
 11
1371.4397576179808
 21
197.22682042201566
 31
0.0
 11
1372.9567134781917
 21
197.97404304318727
 31
0.0
 11
1374.4218506759603
 21
198.80311265140014
 31
0.0
 11
1375.4563809978258
 21
199.49140439718596
 31
0.0
 11
1376.4078196768119
 21
200.25533369905213
 31
0.0
 11
1376.982096171281
 21
200.90611774569902
 31
0.0
 11
1377.3585677596102
 21
201.67213256219219
 31
0.0
 11
1377.4212069294852
 21
202.35710415155629
 31
0.0
 11
1377.1259671224343
 21
202.9783474212752
 31
0.0
 11
1376.5082102656424
 21
203.56731772765153
 31
0.0
 11
1375.7445850962249
 21
203.97985859605348
 31
0.0
 11
1374.5879244399093
 21
204.36839387662849
 31
0.0
 11
1373.379389767194
 21
204.6572579606181
 31
0.0
 11
1371.7181214438665
 21
204.92960145962974
 31
0.0
 11
1370.0364732119383
 21
205.10724140859963
 31
0.0
 11
1367.9234425371062
 21
205.23186923794793
 31
0.0
 11
1365.8059824009758
 21
205.28064556486038
 31
0.0
 11
1363.3144886152209
 21
205.26030267421845
 31
0.0
 11
1360.8235679679124
 21
205.17376324894113
 31
0.0
 11
1358.0292212379366
 21
205.00988614216814
 31
0.0
 11
1355.2386885608023
 21
204.78689111031014
 31
0.0
 11
1352.227095370102
 21
204.48649819434186
 31
0.0
 11
1349.2213091402559
 21
204.13133979535363
 31
0.0
 11
1346.0839230395786
 21
203.70507325874502
 31
0.0
 11
1342.9540153174098
 21
203.22657772412205
 31
0.0
 11
1339.7860153572324
 21
202.68886812216385
 31
0.0
 11
1336.6271366854139
 21
202.09993612231739
 31
0.0
 11
1333.524449312064
 21
201.46857933793052
 31
0.0
 11
1330.4327726235597
 21
200.78562256131585
 31
0.0
 11
1327.4891527419145
 21
200.08135674480906
 31
0.0
 11
1324.5589878108169
 21
199.32368734012186
 31
0.0
 11
1321.8630123709086
 21
198.56968745033922
 31
0.0
 11
1319.183864740939
 21
197.75888702466023
 31
0.0
 11
1316.8161883567088
 21
196.98024507685815
 31
0.0
 11
1314.4708250015237
 21
196.13927786595795
 31
0.0
 11
1312.5003631933064
 21
195.36255602352068
 31
0.0
 11
1310.5602423820299
 21
194.51617433286529
 31
0.0
 11
1309.0432865218193
 21
193.76895171169403
 31
0.0
 11
1307.5781493240515
 21
192.93988210348147
 31
0.0
 11
1306.543619002186
 21
192.25159035769548
 31
0.0
 11
1305.5921803231986
 21
191.48766105582911
 31
0.0
 11
1305.0179038287281
 21
190.83687700918185
 31
0.0
 11
1304.6414322403987
 21
190.07086219268854
 31
0.0
 11
1304.5876234961447
 21
189.37491486389121
 31
0.0
 11
1304.9093545800588
 21
188.72074437587247
 31
0.0
 11
1305.1641050790579
 21
188.40410334205757
 31
0.0
 11
1304.9093545800588
 21
188.7207443758723
 31
0.0
 11
1304.6457736554394
 21
189.04836114912041
 31
0.0
 11
1304.8740328775766
 21
188.76464733360561
 31
0.0
  0
CIRCLE
  5
100
100
AcDbEntity
  8
WANNE
  6
CONTINUOUS
 62
           7
100
AcDbCircle
 10
1340.999999999994
 20
422.0
 40
26.0
  0
CIRCLE
  5
FF
100
AcDbEntity
  8
WANNE
  6
CONTINUOUS
 62
           7
100
AcDbCircle
 10
1340.999999999994
 20
422.0
 40
45.0
  0
ARC
  5
FE
100
AcDbEntity
  8
1
  6
CONTINUOUS
 62
           7
100
AcDbCircle
 10
702.581314241481
 20
375.000000000003
 40
450.000000000023
100
AcDbArc
 50
171.257152686501
 51
-171.2571526865
  0
ARC
  5
FD
100
AcDbEntity
  8
1
  6
CONTINUOUS
 62
           7
100
AcDbCircle
 10
455.486190857764
 20
336.99999999999
 40
199.999999999992
100
AcDbArc
 50
-171.257152686502
 51
-89.999999999999
  0
ARC
  5
FC
100
AcDbEntity
  8
1
  6
CONTINUOUS
 62
           7
100
AcDbCircle
 10
455.486190857768
 20
413.000000000001
 40
199.999999999999
100
AcDbArc
 50
90.0
 51
171.2571526865
  0
ARC
  5
FB
100
AcDbEntity
  8
1
  6
CONTINUOUS
 62
           7
100
AcDbCircle
 10
469.999999999996
 20
375.0
 40
449.999999999998
100
AcDbArc
 50
144.549457360824
 51
180.0
  0
ARC
  5
FA
100
AcDbEntity
  8
1
  6
CONTINUOUS
 62
           7
100
AcDbCircle
 10
979.999999999964
 20
467.893745738648
 40
600.000000000033
100
AcDbArc
 50
-21.90631200427
 51
0.0
  0
ARC
  5
F9
100
AcDbEntity
  8
1
  6
CONTINUOUS
 62
           7
100
AcDbCircle
 10
1467.775539847544
 20
273.893255688592
 40
75.090985960605
100
AcDbArc
 50
-79.980374311176
 51
-23.426009180646
  0
ARC
  5
F8
100
AcDbEntity
  8
1
  6
CONTINUOUS
 62
           7
100
AcDbCircle
 10
1474.225024357842
 20
644.999999999997
 40
75.000000000003
100
AcDbArc
 50
19.715214417949
 51
89.999999999996
  0
ARC
  5
F7
100
AcDbEntity
  8
1
  6
CONTINUOUS
 62
           7
100
AcDbCircle
 10
979.999999999964
 20
467.893745738648
 40
600.000000000033
100
AcDbArc
 50
0.0
 51
19.715214417944
  0
ARC
  5
F6
100
AcDbEntity
  8
1
  6
CONTINUOUS
 62
           7
100
AcDbCircle
 10
266.345881455838
 20
230.0
 40
200.000000000002
100
AcDbArc
 50
-144.549457360823
 51
-90.0
  0
ARC
  5
F5
100
AcDbEntity
  8
1
  6
CONTINUOUS
 62
           7
100
AcDbCircle
 10
469.999999999996
 20
375.0
 40
449.999999999995
100
AcDbArc
 50
180.0
 51
-144.549457360823
  0
ARC
  5
F4
100
AcDbEntity
  8
1
  6
CONTINUOUS
 62
           7
100
AcDbCircle
 10
266.345881455833
 20
520.000000000004
 40
199.999999999996
100
AcDbArc
 50
89.999999999998
 51
144.549457360825
  0
ARC
  5
F3
100
AcDbEntity
  8
1
  6
CONTINUOUS
 62
           7
100
AcDbCircle
 10
1343.544232579914
 20
337.281506859613
 40
99.999999999999
100
AcDbArc
 50
-79.992020198559
 51
-15.142730725967
  0
ARC
  5
F2
100
AcDbEntity
  8
1
  6
CONTINUOUS
 62
           7
100
AcDbCircle
 10
860.905192453107
 20
467.893745738629
 40
599.999999999513
100
AcDbArc
 50
-15.142730725984
 51
5.17583266404
  0
ARC
  5
F1
100
AcDbEntity
  8
1
  6
CONTINUOUS
 62
           7
100
AcDbCircle
 10
1358.866461856666
 20
512.999999999981
 40
100.000000000019
100
AcDbArc
 50
5.175832664044
 51
89.999999999994
  0
LINE
  5
F0
100
AcDbEntity
  8
1
  6
CONTINUOUS
 62
           7
100
AcDbLine
 10
455.486190857764
 20
136.999999999998
 11
775.282360375419
 21
136.999999999998
  0
LINE
  5
EF
100
AcDbEntity
  8
1
  6
CONTINUOUS
 62
           7
100
AcDbLine
 10
455.486190857767
 20
613.0
 11
1358.866461856666
 21
613.0
  0
LINE
  5
EE
100
AcDbEntity
  8
1
  6
CONTINUOUS
 62
           7
100
AcDbLine
 10
1360.922765970818
 20
238.80315097782
 11
792.660893766324
 21
138.521644118204
  0
LINE
  5
ED
100
AcDbEntity
  8
1
  6
CONTINUOUS
 62
           7
100
AcDbLine
 10
1480.840282362794
 20
199.947541306034
 11
525.826864965092
 21
31.521644118205
  0
LINE
  5
EC
100
AcDbEntity
  8
1
  6
CONTINUOUS
 62
           7
100
AcDbLine
 10
266.345881455838
 20
29.999999999998
 11
508.448331574188
 21
29.999999999998
  0
LINE
  5
EB
100
AcDbEntity
  8
1
  6
CONTINUOUS
 62
           7
100
AcDbLine
 10
266.345881455833
 20
720.0
 11
1474.225024357843
 21
720.0
  0
LINE
  5
EA
100
AcDbEntity
  8
1
  6
CONTINUOUS
 62
           7
100
AcDbLine
 10
1600.0
 20
150.0
 11
750.0
 21
0.0
  0
LINE
  5
E9
100
AcDbEntity
  8
1
  6
CONTINUOUS
 62
           7
100
AcDbLine
 10
0.0
 20
750.0
 11
1600.0
 21
750.0
  0
LINE
  5
E8
100
AcDbEntity
  8
1
  6
CONTINUOUS
 62
           7
100
AcDbLine
 10
1600.0
 20
150.0
 11
1600.0
 21
750.0
  0
LINE
  5
E7
100
AcDbEntity
  8
1
  6
CONTINUOUS
 62
           7
100
AcDbLine
 10
0.0
 20
0.0
 11
0.0
 21
750.0
  0
LINE
  5
E6
100
AcDbEntity
  8
1
  6
CONTINUOUS
 62
           7
100
AcDbLine
 10
0.0
 20
0.0
 11
750.0
 21
0.0
  0
LINE
  5
E5
100
AcDbEntity
  8
MITTELLINIEN
  6
DOT_CENTER
 62
           3
100
AcDbLine
 10
1404.989954999998
 20
422.0
 11
1275.321980999987
 21
422.0
  0
LINE
  5
E4
100
AcDbEntity
  8
MITTELLINIEN
  6
DOT_CENTER
 62
           3
100
AcDbLine
 10
1341.0
 20
485.989954999999
 11
1341.0
 21
356.321980999999
  0
ENDBLK
  5
104
100
AcDbEntity
  8
0
100
AcDbBlockEnd
  0
ENDSEC
  0
SECTION
  2
ENTITIES
  0
MTEXT
  5
108
100
AcDbEntity
  8
1
 62
           3
100
AcDbMText
 10
1291.0
 20
472.0
 30
0.0
 40
35.0
 41
0.0
 71
           9
 72
           1
  1
ø 52
  7
CONVERTER_1
  0
TEXT
  5
107
100
AcDbEntity
  8
1
 62
           2
100
AcDbText
 10
450.0
 20
415.0
 40
35.0
  1
Smart-Line 39
 41
0.71262
  7
CONVERTER_1
100
AcDbText
  0
INSERT
  5
2D
100
AcDbEntity
  8
0
100
AcDbBlockReference
  2
DLX
 10
0.0
 20
0.0
  0
INSERT
  5
2E
100
AcDbEntity
  8
0
100
AcDbBlockReference
  2
WANNE_SMART_LINE_39
 10
0.0
 20
0.0
  0
ENDSEC
  0
SECTION
  2
OBJECTS
  0
DICTIONARY
  5
19
100
AcDbDictionary
  3
ACAD_GROUP
350
1A
  3
ACAD_MLINESTYLE
350
1B
  0
DICTIONARY
  5
1A
102
{ACAD_REACTORS
330
19
102
}
100
AcDbDictionary
  0
DICTIONARY
  5
1B
102
{ACAD_REACTORS
330
19
102
}
100
AcDbDictionary
  3
STANDARD
350
1C
  0
MLINESTYLE
  5
1C
102
{ACAD_REACTORS
330
1B
102
}
100
AcDbMlineStyle
  2
STANDARD
 70
           0
  3

 62
           0
 51
90.0
 52
90.0
 71
           2
 49
0.5
 62
         256
  6
BYLAYER
 49
-0.5
 62
         256
  6
BYLAYER
  0
ENDSEC
  0
EOF
