  0
SECTION
  2
HEADER
  9
$ACADVER
  1
AC1014
  9
$ACADMAINTVER
 70
           0
  9
$DWGCODEPAGE
  3
ANSI_1252
  9
$INSBASE
 10
0.0
 20
0.0
 30
0.0
  9
$EXTMIN
 10
1.000000000000E+20
 20
1.000000000000E+20
 30
1.000000000000E+20
  9
$EXTMAX
 10
-1.000000000000E+20
 20
-1.000000000000E+20
 30
-1.000000000000E+20
  9
$LIMMIN
 10
0.0
 20
0.0
  9
$LIMMAX
 10
0.0
 20
0.0
  9
$ORTHOMODE
 70
           0
  9
$REGENMODE
 70
           1
  9
$FILLMODE
 70
           1
  9
$QTEXTMODE
 70
           0
  9
$MIRRTEXT
 70
           1
  9
$DRAGMODE
 70
           2
  9
$LTSCALE
 40
1.0
  9
$OSMODE
 70
           0
  9
$ATTMODE
 70
           1
  9
$TEXTSIZE
 40
0.2
  9
$TRACEWID
 40
0.05
  9
$TEXTSTYLE
  7
STANDARD
  9
$CLAYER
  8
0
  9
$CELTYPE
  6
CONTINUOUS
  9
$CECOLOR
 62
         256
  9
$CELTSCALE
 40
1.0
  9
$DELOBJ
 70
           1
  9
$DISPSILH
 70
           0
  9
$DIMSCALE
 40
1.0
  9
$DIMASZ
 40
0.18
  9
$DIMEXO
 40
0.0625
  9
$DIMDLI
 40
0.38
  9
$DIMRND
 40
0.0
  9
$DIMDLE
 40
0.0
  9
$DIMEXE
 40
0.18
  9
$DIMTP
 40
0.0
  9
$DIMTM
 40
0.0
  9
$DIMTXT
 40
0.18
  9
$DIMCEN
 40
0.09
  9
$DIMTSZ
 40
0.0
  9
$DIMTOL
 70
           0
  9
$DIMLIM
 70
           0
  9
$DIMTIH
 70
           1
  9
$DIMTOH
 70
           1
  9
$DIMSE1
 70
           0
  9
$DIMSE2
 70
           0
  9
$DIMTAD
 70
           0
  9
$DIMZIN
 70
           0
  9
$DIMBLK
  1

  9
$DIMASO
 70
           1
  9
$DIMSHO
 70
           1
  9
$DIMPOST
  1

  9
$DIMAPOST
  1

  9
$DIMALT
 70
           0
  9
$DIMALTD
 70
           2
  9
$DIMALTF
 40
25.4
  9
$DIMLFAC
 40
1.0
  9
$DIMTOFL
 70
           0
  9
$DIMTVP
 40
0.0
  9
$DIMTIX
 70
           0
  9
$DIMSOXD
 70
           0
  9
$DIMSAH
 70
           0
  9
$DIMBLK1
  1

  9
$DIMBLK2
  1

  9
$DIMSTYLE
  2
STANDARD
  9
$DIMCLRD
 70
           0
  9
$DIMCLRE
 70
           0
  9
$DIMCLRT
 70
           0
  9
$DIMTFAC
 40
1.0
  9
$DIMGAP
 40
0.09
  9
$DIMJUST
 70
           0
  9
$DIMSD1
 70
           0
  9
$DIMSD2
 70
           0
  9
$DIMTOLJ
 70
           1
  9
$DIMTZIN
 70
           0
  9
$DIMALTZ
 70
           0
  9
$DIMALTTZ
 70
           0
  9
$DIMFIT
 70
           3
  9
$DIMUPT
 70
           0
  9
$DIMUNIT
 70
           2
  9
$DIMDEC
 70
           4
  9
$DIMTDEC
 70
           4
  9
$DIMALTU
 70
           2
  9
$DIMALTTD
 70
           2
  9
$DIMTXSTY
  7
STANDARD
  9
$DIMAUNIT
 70
           0
  9
$LUNITS
 70
           2
  9
$LUPREC
 70
           4
  9
$SKETCHINC
 40
0.1
  9
$FILLETRAD
 40
0.0
  9
$AUNITS
 70
           0
  9
$AUPREC
 70
           0
  9
$MENU
  1
acad
  9
$ELEVATION
 40
0.0
  9
$PELEVATION
 40
0.0
  9
$THICKNESS
 40
0.0
  9
$LIMCHECK
 70
           0
  9
$BLIPMODE
 70
           1
  9
$CHAMFERA
 40
0.0
  9
$CHAMFERB
 40
0.0
  9
$CHAMFERC
 40
0.0
  9
$CHAMFERD
 40
0.0
  9
$SKPOLY
 70
           0
  9
$TDCREATE
 40
0.000000000
  9
$TDUPDATE
 40
0.000000000
  9
$TDINDWG
 40
0.0000000000
  9
$TDUSRTIMER
 40
0.0000000000
  9
$USRTIMER
 70
           1
  9
$ANGBASE
 50
0.0
  9
$ANGDIR
 70
           0
  9
$PDMODE
 70
           0
  9
$PDSIZE
 40
0.0
  9
$PLINEWID
 40
0.0
  9
$COORDS
 70
           0
  9
$SPLFRAME
 70
           0
  9
$SPLINETYPE
 70
           6
  9
$SPLINESEGS
 70
           8
  9
$ATTDIA
 70
           0
  9
$ATTREQ
 70
           1
  9
$HANDLING
 70
           1
  9
$HANDSEED
  5
10A
  9
$SURFTAB1
 70
           6
  9
$SURFTAB2
 70
           6
  9
$SURFTYPE
 70
           6
  9
$SURFU
 70
           6
  9
$SURFV
 70
           6
  9
$UCSNAME
  2

  9
$UCSORG
 10
0.0
 20
0.0
 30
0.0
  9
$UCSXDIR
 10
1.0
 20
0.0
 30
0.0
  9
$UCSYDIR
 10
0.0
 20
1.0
 30
0.0
  9
$PUCSNAME
  2

  9
$PUCSORG
 10
0.0
 20
0.0
 30
0.0
  9
$PUCSXDIR
 10
1.0
 20
0.0
 30
0.0
  9
$PUCSYDIR
 10
0.0
 20
1.0
 30
0.0
  9
$USERI1
 70
           0
  9
$USERI2
 70
           0
  9
$USERI3
 70
           0
  9
$USERI4
 70
           0
  9
$USERI5
 70
           0
  9
$USERR1
 40
0.0
  9
$USERR2
 40
0.0
  9
$USERR3
 40
0.0
  9
$USERR4
 40
0.0
  9
$USERR5
 40
0.0
  9
$WORLDVIEW
 70
           1
  9
$SHADEDGE
 70
           3
  9
$SHADEDIF
 70
          70
  9
$TILEMODE
 70
           1
  9
$MAXACTVP
 70
          16
  9
$PINSBASE
 10
0.0
 20
0.0
 30
0.0
  9
$PLIMCHECK
 70
           0
  9
$PEXTMIN
 10
1.000000000000E+20
 20
1.000000000000E+20
 30
1.000000000000E+20
  9
$PEXTMAX
 10
-1.000000000000E+20
 20
-1.000000000000E+20
 30
-1.000000000000E+20
  9
$PLIMMIN
 10
0.0
 20
0.0
  9
$PLIMMAX
 10
12.0
 20
9.0
  9
$UNITMODE
 70
           0
  9
$VISRETAIN
 70
           0
  9
$PLINEGEN
 70
           1
  9
$PSLTSCALE
 70
           0
  9
$TREEDEPTH
 70
        3020
  9
$PICKSTYLE
 70
           1
  9
$CMLSTYLE
  2
STANDARD
  9
$CMLJUST
 70
           0
  9
$CMLSCALE
 40
1.0
  9
$PROXYGRAPHICS
 70
           0
  9
$MEASUREMENT
 70
           0
  0
ENDSEC
  0
SECTION
  2
CLASSES
  0
CLASS
  1
LWPOLYLINE
  2
AcDbPolyline
  3
"AutoCAD"
 90
        0
280
           0
281
           1
  0
CLASS
  1
IMAGE
  2
AcDbRasterImage
  3
ISM
 90
      127
280
           0
281
           1
  0
CLASS
  1
OLE2FRAME
  2
AcDbOle2Frame
  3
""
 90
        0
280
           0
281
           1
  0
CLASS
  1
HATCH
  2
AcDbHatch
  3
"ACAD_SEDONA"
 90
        0
280
           0
281
           1
  0
CLASS
  1
DICTIONARYVAR
  2
AcDbDictionaryVar
  3
"AutoCAD"
 90
        0
280
           0
281
           0
  0
CLASS
  1
RASTERVARIABLES
  2
AcDbRasterVariables
  3
ISM
 90
        0
280
           0
281
           0
  0
CLASS
  1
IMAGEDEF
  2
AcDbRasterImageDef
  3
ISM
 90
        0
280
           0
281
           0
  0
CLASS
  1
IMAGEDEF_REACTOR
  2
AcDbRasterImageDefReactor
  3
ISM
 90
        1
280
           0
281
           0
  0
CLASS
  1
IDBUFFER
  2
AcDbIdBuffer
  3
"Acad"
 90
        0
280
           0
281
           0
  0
CLASS
  1
SPATIAL_FILTER
  2
AcDbSpatialFilter
  3
"Acad"
 90
        0
280
           0
281
           0
  0
CLASS
  1
XRECORD
  2
AcDbXrecord
  3
"<Built In>"
 90
        0
280
           0
281
           0
  0
CLASS
  1
SORTENTSTABLE
  2
AcDbSortentsTable
  3
"AutoCAD"
 90
        0
280
           0
281
           0
  0
CLASS
  1
LAYER_INDEX
  2
AcDbLayerIndex
  3
"Acad"
 90
        0
280
           0
281
           0
  0
CLASS
  1
SPATIAL_INDEX
  2
AcDbSpatialIndex
  3
"Acad"
 90
        0
280
           0
281
           0
  0
CLASS
  1
OBJECT_PTR
  2
CAseDLPNTableRecord
  3
"ASE-LPNTableRecord"
 90
        1
280
           0
281
           0
  0
CLASS
  1
LAYOUT
  2
AcDbLayout
  3
"AutoCAD 2000"
 90
        1
280
           0
281
           0
  0
CLASS
  1
PLOTSETTINGS
  2
AcDbPlotSettings
  3
"AutoCAD 2000"
 90
        1
280
           0
281
           0
  0
CLASS
  1
ACDBDICTIONARYWDFLT
  2
AcDbDictionaryWithDefault
  3
"AutoCAD 2000"
 90
        1
280
           0
281
           0
  0
CLASS
  1
ACDBPLACEHOLDER
  2
AcDbPlaceHolder
  3
"AutoCAD 2000"
 90
        1
280
           0
281
           0
  0
CLASS
  1
VBA_PROJECT
  2
AcDbVbaProject
  3
"acadvba"
 90
        1
280
           0
281
           0
  0
CLASS
  1
WIPEOUT
  2
AcDbWipeout
  3
WipeOut|AutoCAD Express Tool|expresstools@autodesk.com
 90
      127
280
           0
281
           1
  0
CLASS
  1
WIPEOUTVARIABLES
  2
AcDbWipeoutVariables
  3
WipeOut|AutoCAD Express Tool|expresstools@autodesk.com
 90
        0
280
           0
281
           0
  0
CLASS
  1
RTEXT
  2
RText
  3
RText|AutoCAD Express Tool|expresstools@autodesk.com
 90
        0
280
           0
281
           1
  0
CLASS
  1
ARCALIGNEDTEXT
  2
AcDbArcAlignedText
  3
ATEXT|AutoCAD Express Tool|expresstools@autodesk.com
 90
        0
280
           0
281
           1
  0
ENDSEC
  0
SECTION
  2
TABLES
  0
TABLE
  2
VPORT
  5
7
100
AcDbSymbolTable
 70
           1
  0
VPORT
  5
15
100
AcDbSymbolTableRecord
100
AcDbViewportTableRecord
  2
*ACTIVE
 70
           0
 10
0.0
 20
0.0
 11
1.0
 21
1.0
 12
6.591288
 22
4.579184
 13
0.0
 23
0.0
 14
1.0
 24
1.0
 15
0.0
 25
0.0
 16
0.0
 26
0.0
 36
1.0
 17
0.0
 27
0.0
 37
0.0
 40
9.158369
 41
0.688564
 42
50.0
 43
0.0
 44
0.0
 50
0.0
 51
0.0
 71
           0
 72
         100
 73
           1
 74
           1
 75
           0
 76
           0
 77
           0
 78
           0
  0
ENDTAB
  0
TABLE
  2
LTYPE
  5
4
100
AcDbSymbolTable
 70
          10
  0
LTYPE
  5
11
100
AcDbSymbolTableRecord
100
AcDbLinetypeTableRecord
  2
BYBLOCK
 70
          64
  3

 72
          65
 73
           0
 40
0.0
  0
LTYPE
  5
12
100
AcDbSymbolTableRecord
100
AcDbLinetypeTableRecord
  2
BYLAYER
 70
          64
  3

 72
          65
 73
           0
 40
0.0
  0
LTYPE
  5
13
100
AcDbSymbolTableRecord
100
AcDbLinetypeTableRecord
  2
CONTINUOUS
 70
          64
  3
Solid line
 72
          65
 73
           0
 40
0.0
  0
LTYPE
  5
1D
100
AcDbSymbolTableRecord
100
AcDbLinetypeTableRecord
  2
DASHED
 70
          64
  3
Dashed
 72
          65
 73
           2
 40
15.0
 49
12.0
 74
           0
 49
-3.0
 74
           0
  0
LTYPE
  5
1E
100
AcDbSymbolTableRecord
100
AcDbLinetypeTableRecord
  2
DOTTED
 70
          64
  3
Dotted
 72
          65
 73
           2
 40
3.5
 49
0.5
 74
           0
 49
-3.0
 74
           0
  0
LTYPE
  5
1F
100
AcDbSymbolTableRecord
100
AcDbLinetypeTableRecord
  2
DOT_CENTER
 70
          64
  3
Dot_Center
 72
          65
 73
           4
 40
2.0
 49
1.25
 74
           0
 49
-0.25
 74
           0
 49
0.25
 74
           0
 49
-0.25
 74
           0
  0
LTYPE
  5
20
100
AcDbSymbolTableRecord
100
AcDbLinetypeTableRecord
  2
LONG_DASHED
 70
          64
  3
Long_Dashed
 72
          65
 73
           2
 40
2.0
 49
1.5
 74
           0
 49
-0.5
 74
           0
  0
LTYPE
  5
21
100
AcDbSymbolTableRecord
100
AcDbLinetypeTableRecord
  2
DASH_CENTER
 70
          64
  3
Dash_Center
 72
          65
 73
           4
 40
36.0
 49
24.0
 74
           0
 49
-3.0
 74
           0
 49
6.0
 74
           0
 49
-3.0
 74
           0
  0
LTYPE
  5
22
100
AcDbSymbolTableRecord
100
AcDbLinetypeTableRecord
  2
PHANTOM
 70
          64
  3
Phantom
 72
          65
 73
           6
 40
2.5
 49
1.25
 74
           0
 49
-0.25
 74
           0
 49
0.25
 74
           0
 49
-0.25
 74
           0
 49
0.25
 74
           0
 49
-0.25
 74
           0
  0
LTYPE
  5
23
100
AcDbSymbolTableRecord
100
AcDbLinetypeTableRecord
  2
CENTER_DASH_DASH
 70
          64
  3
Center_Dash_Dash
 72
          65
 73
           6
 40
22.0
 49
12.0
 74
           0
 49
-3.0
 74
           0
 49
0.5
 74
           0
 49
-3.0
 74
           0
 49
0.5
 74
           0
 49
-3.0
 74
           0
  0
ENDTAB
  0
TABLE
  2
LAYER
  5
2
100
AcDbSymbolTable
 70
           4
  0
LAYER
  5
14
100
AcDbSymbolTableRecord
100
AcDbLayerTableRecord
  2
0
 70
           0
 62
           7
  6
CONTINUOUS
  0
LAYER
  5
24
100
AcDbSymbolTableRecord
100
AcDbLayerTableRecord
  2
MITTELLINIEN
 70
           0
 62
           7
  6
CONTINUOUS
  0
LAYER
  5
25
100
AcDbSymbolTableRecord
100
AcDbLayerTableRecord
  2
1
 70
           0
 62
           7
  6
CONTINUOUS
  0
LAYER
  5
26
100
AcDbSymbolTableRecord
100
AcDbLayerTableRecord
  2
WANNE
 70
           0
 62
           7
  6
CONTINUOUS
  0
ENDTAB
  0
TABLE
  2
STYLE
  5
3
100
AcDbSymbolTable
 70
           2
  0
STYLE
  5
17
100
AcDbSymbolTableRecord
100
AcDbTextStyleTableRecord
  2
STANDARD
 70
           0
 40
0.0
 41
1.0
 50
0.0
 71
           0
 42
0.0
  3
txt
  4

  0
STYLE
  5
106
100
AcDbSymbolTableRecord
100
AcDbTextStyleTableRecord
  2
CONVERTER_1
 70
           0
 40
0.0
 41
0.71262
 50
0.0
 71
           0
 42
0.0
  3
txt.shx
  4

  0
ENDTAB
  0
TABLE
  2
VIEW
  5
5
100
AcDbSymbolTable
 70
           0
  0
ENDTAB
  0
TABLE
  2
UCS
  5
6
100
AcDbSymbolTable
 70
           0
  0
ENDTAB
  0
TABLE
  2
APPID
  5
8
100
AcDbSymbolTable
 70
           1
  0
APPID
  5
16
100
AcDbSymbolTableRecord
100
AcDbRegAppTableRecord
  2
ACAD
 70
           0
  0
ENDTAB
  0
TABLE
  2
DIMSTYLE
  5
9
100
AcDbSymbolTable
 70
           1
  0
DIMSTYLE
105
18
100
AcDbSymbolTableRecord
100
AcDbDimStyleTableRecord
  2
STANDARD
 70
           0
  3

  4

  5

  6

  7

 40
1.0
 41
0.18
 42
0.0625
 43
0.38
 44
0.18
 45
0.0
 46
0.0
 47
0.0
 48
0.0
 71
           0
 72
           0
 73
           1
 74
           1
 75
           0
 76
           0
 77
           0
 78
           0
140
0.18
141
0.09
142
0.0
143
25.4
144
1.0
145
0.0
146
1.0
147
0.09
170
           0
171
           2
172
           0
173
           0
174
           0
175
           0
176
           0
177
           0
178
           0
270
           2
271
           4
272
           4
273
           2
274
           2
275
           0
280
           0
281
           0
282
           0
283
           1
284
           0
285
           0
286
           0
287
           0
288
           0
340
17
  0
ENDTAB
  0
TABLE
  2
BLOCK_RECORD
  5
1
100
AcDbSymbolTable
 70
           2
  0
BLOCK_RECORD
  5
A
100
AcDbSymbolTableRecord
100
AcDbBlockTableRecord
  2
*MODEL_SPACE
  0
BLOCK_RECORD
  5
B
100
AcDbSymbolTableRecord
100
AcDbBlockTableRecord
  2
*PAPER_SPACE
  0
BLOCK_RECORD
  5
27
100
AcDbSymbolTableRecord
100
AcDbBlockTableRecord
  2
DLX
  0
BLOCK_RECORD
  5
29
100
AcDbSymbolTableRecord
100
AcDbBlockTableRecord
  2
WANNE_SMART_LINE_40
  0
ENDTAB
  0
ENDSEC
  0
SECTION
  2
BLOCKS
  0
BLOCK
  5
D
100
AcDbEntity
  8
0
100
AcDbBlockBegin
  2
*MODEL_SPACE
 70
           0
 10
0.0
 20
0.0
 30
0.0
  3
*MODEL_SPACE
  1

  0
ENDBLK
  5
E
100
AcDbEntity
  8
0
100
AcDbBlockEnd
  0
BLOCK
  5
F
100
AcDbEntity
 67
           1
  8
0
100
AcDbBlockBegin
  2
*PAPER_SPACE
 70
           0
 10
0.0
 20
0.0
 30
0.0
  3
*PAPER_SPACE
  1

  0
ENDBLK
  5
10
100
AcDbEntity
 67
           1
  8
0
100
AcDbBlockEnd
  0
BLOCK
  5
28
100
AcDbEntity
  8
0
100
AcDbBlockBegin
  2
DLX
 70
           0
 10
0.0
 20
0.0
 30
0.0
  3
DLX
  1

  0
CIRCLE
  5
E2
100
AcDbEntity
  8
1
  6
CONTINUOUS
 62
           3
100
AcDbCircle
 10
1142.40637208573
 20
550.878787878755
 40
5.972862778754
  0
CIRCLE
  5
E1
100
AcDbEntity
  8
1
  6
CONTINUOUS
 62
           3
100
AcDbCircle
 10
1142.40637208573
 20
550.878787878755
 40
5.530127989696
  0
ARC
  5
E0
100
AcDbEntity
  8
1
  6
CONTINUOUS
 62
           3
100
AcDbCircle
 10
1142.613190917109
 20
552.303919921381
 40
2.009798008862
100
AcDbArc
 50
-55.929988464572
 51
86.297888718258
  0
ARC
  5
DF
100
AcDbEntity
  8
1
  6
CONTINUOUS
 62
           3
100
AcDbCircle
 10
1142.534873091095
 20
552.264025930551
 40
1.257687287767
100
AcDbArc
 50
-74.800419047067
 51
80.931395238798
  0
ARC
  5
DE
100
AcDbEntity
  8
1
  6
CONTINUOUS
 62
           3
100
AcDbCircle
 10
1142.459690452899
 20
549.053039389822
 40
1.155889798232
100
AcDbArc
 50
0.985058170485
 51
82.918254632932
  0
ARC
  5
DD
100
AcDbEntity
  8
1
  6
CONTINUOUS
 62
           3
100
AcDbCircle
 10
1143.185083639389
 20
549.362233682226
 40
1.391870091328
100
AcDbArc
 50
-1.298612665726
 51
66.544866494037
  0
LINE
  5
DC
100
AcDbEntity
  8
1
  6
CONTINUOUS
 62
           3
100
AcDbLine
 10
1034.998720317111
 20
546.979895810782
 11
1034.70331722973
 21
547.978447872363
  0
LINE
  5
DB
100
AcDbEntity
  8
1
  6
CONTINUOUS
 62
           3
100
AcDbLine
 10
1035.435399998678
 20
548.762204858332
 11
1034.70331722973
 21
547.978447872363
  0
LINE
  5
DA
100
AcDbEntity
  8
1
  6
CONTINUOUS
 62
           3
100
AcDbLine
 10
1070.466423967347
 20
518.237708784527
 11
1073.850831458228
 21
532.051175145079
  0
LINE
  5
D9
100
AcDbEntity
  8
1
  6
CONTINUOUS
 62
           3
100
AcDbLine
 10
1066.278269812108
 20
518.237708784527
 11
1069.662677303124
 21
532.051175145079
  0
LINE
  5
D8
100
AcDbEntity
  8
1
  6
CONTINUOUS
 62
           3
100
AcDbLine
 10
1066.278269812108
 20
518.237708784527
 11
1070.466423967347
 21
518.237708784527
  0
LINE
  5
D7
100
AcDbEntity
  8
1
  6
CONTINUOUS
 62
           3
100
AcDbLine
 10
1065.194295752939
 20
513.813466360341
 11
1069.382449908127
 21
513.813466360341
  0
LINE
  5
D6
100
AcDbEntity
  8
1
  6
CONTINUOUS
 62
           3
100
AcDbLine
 10
1065.998042417232
 20
500.0
 11
1072.280273650129
 21
500.0
  0
LINE
  5
D5
100
AcDbEntity
  8
1
  6
CONTINUOUS
 62
           3
100
AcDbLine
 10
1069.662677303124
 20
532.051175145079
 11
1063.380446070259
 21
532.051175145079
  0
LINE
  5
D4
100
AcDbEntity
  8
1
  6
CONTINUOUS
 62
           3
100
AcDbLine
 10
1101.073833467082
 20
532.051175145079
 11
1093.221044426063
 21
500.0
  0
LINE
  5
D3
100
AcDbEntity
  8
1
  6
CONTINUOUS
 62
           3
100
AcDbLine
 10
1093.707628175085
 20
527.626932720839
 11
1088.022787252361
 21
504.424242424182
  0
LINE
  5
D2
100
AcDbEntity
  8
1
  6
CONTINUOUS
 62
           3
100
AcDbLine
 10
1089.519474019835
 20
527.626932720839
 11
1093.707628175085
 21
527.626932720839
  0
LINE
  5
D1
100
AcDbEntity
  8
1
  6
CONTINUOUS
 62
           3
100
AcDbLine
 10
1101.073833467082
 20
532.051175145079
 11
1084.321216846252
 21
532.051175145079
  0
LINE
  5
D0
100
AcDbEntity
  8
1
  6
CONTINUOUS
 62
           3
100
AcDbLine
 10
1083.83463309726
 20
504.424242424182
 11
1089.519474019835
 21
527.626932720839
  0
LINE
  5
CF
100
AcDbEntity
  8
1
  6
CONTINUOUS
 62
           3
100
AcDbLine
 10
1084.321216846252
 20
532.051175145079
 11
1076.468427805255
 21
500.0
  0
LINE
  5
CE
100
AcDbEntity
  8
1
  6
CONTINUOUS
 62
           3
100
AcDbLine
 10
1088.022787252361
 20
504.424242424182
 11
1083.83463309726
 21
504.424242424182
  0
LINE
  5
CD
100
AcDbEntity
  8
1
  6
CONTINUOUS
 62
           3
100
AcDbLine
 10
1076.468427805255
 20
500.0
 11
1093.221044426063
 21
500.0
  0
LINE
  5
CC
100
AcDbEntity
  8
1
  6
CONTINUOUS
 62
           3
100
AcDbLine
 10
1080.133062691144
 20
532.051175145079
 11
1073.850831458228
 21
532.051175145079
  0
LINE
  5
CB
100
AcDbEntity
  8
1
  6
CONTINUOUS
 62
           3
100
AcDbLine
 10
1063.380446070259
 20
532.051175145079
 11
1055.527657029266
 21
500.0
  0
LINE
  5
CA
100
AcDbEntity
  8
1
  6
CONTINUOUS
 62
           3
100
AcDbLine
 10
1061.809888262054
 20
500.0
 11
1065.194295752939
 21
513.813466360341
  0
LINE
  5
C9
100
AcDbEntity
  8
1
  6
CONTINUOUS
 62
           3
100
AcDbLine
 10
1065.998042417232
 20
500.0
 11
1069.382449908127
 21
513.813466360341
  0
LINE
  5
C8
100
AcDbEntity
  8
1
  6
CONTINUOUS
 62
           3
100
AcDbLine
 10
1072.280273650129
 20
500.0
 11
1080.133062691144
 21
532.051175145079
  0
LINE
  5
C7
100
AcDbEntity
  8
1
  6
CONTINUOUS
 62
           3
100
AcDbLine
 10
1055.527657029266
 20
500.0
 11
1061.809888262054
 21
500.0
  0
LINE
  5
C6
100
AcDbEntity
  8
1
  6
CONTINUOUS
 62
           3
100
AcDbLine
 10
1050.200125534309
 20
520.990569084413
 11
1056.482356767115
 21
520.990569084413
  0
LINE
  5
C5
100
AcDbEntity
  8
1
  6
CONTINUOUS
 62
           3
100
AcDbLine
 10
1051.826086623103
 20
527.626932720839
 11
1050.200125534309
 21
520.990569084413
  0
LINE
  5
C4
100
AcDbEntity
  8
1
  6
CONTINUOUS
 62
           3
100
AcDbLine
 10
1047.637932467911
 20
527.626932720839
 11
1051.826086623103
 21
527.626932720839
  0
LINE
  5
C3
100
AcDbEntity
  8
1
  6
CONTINUOUS
 62
           3
100
AcDbLine
 10
1041.953091545281
 20
504.424242424182
 11
1047.637932467911
 21
527.626932720839
  0
LINE
  5
C2
100
AcDbEntity
  8
1
  6
CONTINUOUS
 62
           3
100
AcDbLine
 10
1046.141245700484
 20
504.424242424182
 11
1041.953091545281
 21
504.424242424182
  0
LINE
  5
C1
100
AcDbEntity
  8
1
  6
CONTINUOUS
 62
           3
100
AcDbLine
 10
1047.767206789271
 20
511.060606060608
 11
1046.141245700484
 21
504.424242424182
  0
LINE
  5
C0
100
AcDbEntity
  8
1
  6
CONTINUOUS
 62
           3
100
AcDbLine
 10
1054.049438022059
 20
511.060606060608
 11
1047.767206789271
 21
511.060606060608
  0
LINE
  5
BF
100
AcDbEntity
  8
1
  6
CONTINUOUS
 62
           3
100
AcDbLine
 10
1051.339502874085
 20
500.0
 11
1054.049438022059
 21
511.060606060608
  0
LINE
  5
BE
100
AcDbEntity
  8
1
  6
CONTINUOUS
 62
           3
100
AcDbLine
 10
1034.586886253331
 20
500.0
 11
1051.339502874085
 21
500.0
  0
LINE
  5
BD
100
AcDbEntity
  8
1
  6
CONTINUOUS
 62
           3
100
AcDbLine
 10
1042.439675294325
 20
532.051175145079
 11
1034.586886253331
 21
500.0
  0
LINE
  5
BC
100
AcDbEntity
  8
1
  6
CONTINUOUS
 62
           3
100
AcDbLine
 10
1059.192291915045
 20
532.051175145079
 11
1042.439675294325
 21
532.051175145079
  0
LINE
  5
BB
100
AcDbEntity
  8
1
  6
CONTINUOUS
 62
           3
100
AcDbLine
 10
1056.482356767115
 20
520.990569084413
 11
1059.192291915045
 21
532.051175145079
  0
LINE
  5
BA
100
AcDbEntity
  8
1
  6
CONTINUOUS
 62
           3
100
AcDbLine
 10
1037.167547079949
 20
527.626932720839
 11
1038.251521139107
 21
532.051175145079
  0
LINE
  5
B9
100
AcDbEntity
  8
1
  6
CONTINUOUS
 62
           3
100
AcDbLine
 10
1026.697161691969
 20
527.626932720839
 11
1037.167547079949
 21
527.626932720839
  0
LINE
  5
B8
100
AcDbEntity
  8
1
  6
CONTINUOUS
 62
           3
100
AcDbLine
 10
1024.264242946956
 20
517.696969696953
 11
1026.697161691969
 21
527.626932720839
  0
LINE
  5
B7
100
AcDbEntity
  8
1
  6
CONTINUOUS
 62
           3
100
AcDbLine
 10
1034.73462833502
 20
517.696969696953
 11
1024.264242946956
 21
517.696969696953
  0
LINE
  5
B6
100
AcDbEntity
  8
1
  6
CONTINUOUS
 62
           3
100
AcDbLine
 10
1030.398732098096
 20
500.0
 11
1034.73462833502
 21
517.696969696953
  0
LINE
  5
B5
100
AcDbEntity
  8
1
  6
CONTINUOUS
 62
           3
100
AcDbLine
 10
1013.646115477273
 20
500.0
 11
1030.398732098096
 21
500.0
  0
LINE
  5
B4
100
AcDbEntity
  8
1
  6
CONTINUOUS
 62
           3
100
AcDbLine
 10
1014.73008953658
 20
504.424242424182
 11
1013.646115477273
 21
500.0
  0
LINE
  5
B3
100
AcDbEntity
  8
1
  6
CONTINUOUS
 62
           3
100
AcDbLine
 10
1025.200474924491
 20
504.424242424182
 11
1014.73008953658
 21
504.424242424182
  0
LINE
  5
B2
100
AcDbEntity
  8
1
  6
CONTINUOUS
 62
           3
100
AcDbLine
 10
1027.36842304291
 20
513.272727272797
 11
1025.200474924491
 21
504.424242424182
  0
LINE
  5
B1
100
AcDbEntity
  8
1
  6
CONTINUOUS
 62
           3
100
AcDbLine
 10
1016.898037654944
 20
513.272727272797
 11
1027.36842304291
 21
513.272727272797
  0
LINE
  5
B0
100
AcDbEntity
  8
1
  6
CONTINUOUS
 62
           3
100
AcDbLine
 10
1021.498904518335
 20
532.051175145079
 11
1016.898037654944
 21
513.272727272797
  0
LINE
  5
AF
100
AcDbEntity
  8
1
  6
CONTINUOUS
 62
           3
100
AcDbLine
 10
1038.251521139107
 20
532.051175145079
 11
1021.498904518335
 21
532.051175145079
  0
LINE
  5
AE
100
AcDbEntity
  8
1
  6
CONTINUOUS
 62
           3
100
AcDbLine
 10
1017.310750363173
 20
532.051175145079
 11
1009.457961322157
 21
500.0
  0
LINE
  5
AD
100
AcDbEntity
  8
1
  6
CONTINUOUS
 62
           3
100
AcDbLine
 10
1011.028519130366
 20
532.051175145079
 11
1017.310750363173
 21
532.051175145079
  0
LINE
  5
AC
100
AcDbEntity
  8
1
  6
CONTINUOUS
 62
           3
100
AcDbLine
 10
1009.457961322157
 20
500.0
 11
991.658306162568
 21
500.0
  0
LINE
  5
AB
100
AcDbEntity
  8
1
  6
CONTINUOUS
 62
           3
100
AcDbLine
 10
1004.25970414856
 20
504.424242424182
 11
1011.028519130366
 21
532.051175145079
  0
LINE
  5
AA
100
AcDbEntity
  8
1
  6
CONTINUOUS
 62
           3
100
AcDbLine
 10
999.024511454576
 20
504.424242424182
 11
1004.25970414856
 21
504.424242424182
  0
LINE
  5
A9
100
AcDbEntity
  8
1
  6
CONTINUOUS
 62
           3
100
AcDbLine
 10
1005.793326436371
 20
532.051175145079
 11
999.024511454576
 21
504.424242424182
  0
LINE
  5
A8
100
AcDbEntity
  8
1
  6
CONTINUOUS
 62
           3
100
AcDbLine
 10
999.511095203561
 20
532.051175145079
 11
1005.793326436371
 21
532.051175145079
  0
LINE
  5
A7
100
AcDbEntity
  8
1
  6
CONTINUOUS
 62
           3
100
AcDbLine
 10
991.658306162568
 20
500.0
 11
999.511095203561
 21
532.051175145079
  0
LINE
  5
A6
100
AcDbEntity
  8
1
  6
CONTINUOUS
 62
           3
100
AcDbLine
 10
987.470152007441
 20
500.0
 11
969.670496847793
 21
500.0
  0
LINE
  5
A5
100
AcDbEntity
  8
1
  6
CONTINUOUS
 62
           3
100
AcDbLine
 10
998.032876196361
 20
543.111781205662
 11
987.470152007441
 21
500.0
  0
LINE
  5
A4
100
AcDbEntity
  8
1
  6
CONTINUOUS
 62
           3
100
AcDbLine
 10
974.059549119069
 20
543.111781205662
 11
998.032876196361
 21
543.111781205662
  0
LINE
  5
A3
100
AcDbEntity
  8
1
  6
CONTINUOUS
 62
           3
100
AcDbLine
 10
972.704581545084
 20
537.581478175405
 11
974.059549119069
 21
543.111781205662
  0
LINE
  5
A2
100
AcDbEntity
  8
1
  6
CONTINUOUS
 62
           3
100
AcDbLine
 10
990.395677389617
 20
537.581478175405
 11
972.704581545084
 21
537.581478175405
  0
LINE
  5
A1
100
AcDbEntity
  8
1
  6
CONTINUOUS
 62
           3
100
AcDbLine
 10
982.271894833735
 20
504.424242424182
 11
990.395677389617
 21
537.581478175405
  0
LINE
  5
A0
100
AcDbEntity
  8
1
  6
CONTINUOUS
 62
           3
100
AcDbLine
 10
977.036702139856
 20
504.424242424182
 11
982.271894833735
 21
504.424242424182
  0
LINE
  5
9F
100
AcDbEntity
  8
1
  6
CONTINUOUS
 62
           3
100
AcDbLine
 10
983.805517121545
 20
532.051175145079
 11
977.036702139856
 21
504.424242424182
  0
LINE
  5
9E
100
AcDbEntity
  8
1
  6
CONTINUOUS
 62
           3
100
AcDbLine
 10
977.523285888848
 20
532.051175145079
 11
983.805517121545
 21
532.051175145079
  0
LINE
  5
9D
100
AcDbEntity
  8
1
  6
CONTINUOUS
 62
           3
100
AcDbLine
 10
969.670496847793
 20
500.0
 11
977.523285888848
 21
532.051175145079
  0
LINE
  5
9C
100
AcDbEntity
  8
1
  6
CONTINUOUS
 62
           3
100
AcDbLine
 10
1104.790178081308
 20
506.19393939391
 11
1113.835338587399
 21
543.111781205662
  0
LINE
  5
9B
100
AcDbEntity
  8
1
  6
CONTINUOUS
 62
           3
100
AcDbLine
 10
1113.835338587399
 20
543.111781205662
 11
1107.971922770131
 21
543.111781205662
  0
LINE
  5
9A
100
AcDbEntity
  8
1
  6
CONTINUOUS
 62
           3
100
AcDbLine
 10
1107.971922770131
 20
543.111781205662
 11
1097.40919858119
 21
500.0
  0
LINE
  5
99
100
AcDbEntity
  8
1
  6
CONTINUOUS
 62
           3
100
AcDbLine
 10
1115.31355759476
 20
532.051175145079
 11
1109.628716672072
 21
508.848484848477
  0
LINE
  5
98
100
AcDbEntity
  8
1
  6
CONTINUOUS
 62
           3
100
AcDbLine
 10
1109.628716672072
 20
508.848484848477
 11
1125.334294753993
 21
508.848484848477
  0
LINE
  5
97
100
AcDbEntity
  8
1
  6
CONTINUOUS
 62
           3
100
AcDbLine
 10
1125.334294753993
 20
508.848484848477
 11
1131.019135676601
 21
532.051175145079
  0
LINE
  5
96
100
AcDbEntity
  8
1
  6
CONTINUOUS
 62
           3
100
AcDbLine
 10
1131.019135676601
 20
532.051175145079
 11
1125.783942982678
 21
532.051175145079
  0
LINE
  5
95
100
AcDbEntity
  8
1
  6
CONTINUOUS
 62
           3
100
AcDbLine
 10
1125.783942982678
 20
532.051175145079
 11
1121.183076119283
 21
513.272727272797
  0
LINE
  5
94
100
AcDbEntity
  8
1
  6
CONTINUOUS
 62
           3
100
AcDbLine
 10
1121.183076119283
 20
513.272727272797
 11
1115.947883425331
 21
513.272727272797
  0
LINE
  5
93
100
AcDbEntity
  8
1
  6
CONTINUOUS
 62
           3
100
AcDbLine
 10
1115.947883425331
 20
513.272727272797
 11
1120.548750288682
 21
532.051175145079
  0
LINE
  5
92
100
AcDbEntity
  8
1
  6
CONTINUOUS
 62
           3
100
AcDbLine
 10
1120.548750288682
 20
532.051175145079
 11
1115.31355759476
 21
532.051175145079
  0
LINE
  5
91
100
AcDbEntity
  8
1
  6
CONTINUOUS
 62
           3
100
AcDbLine
 10
1137.577474432742
 20
532.051175145079
 11
1133.532028169727
 21
532.051175145079
  0
LINE
  5
90
100
AcDbEntity
  8
1
  6
CONTINUOUS
 62
           3
100
AcDbLine
 10
1133.532028169727
 20
532.051175145079
 11
1137.654323691924
 21
521.415301218661
  0
LINE
  5
8F
100
AcDbEntity
  8
1
  6
CONTINUOUS
 62
           3
100
AcDbLine
 10
1137.654323691924
 20
521.415301218661
 11
1127.847187247134
 21
508.848484848477
  0
LINE
  5
8E
100
AcDbEntity
  8
1
  6
CONTINUOUS
 62
           3
100
AcDbLine
 10
1127.847187247134
 20
508.848484848477
 11
1131.892633510131
 21
508.848484848477
  0
LINE
  5
8D
100
AcDbEntity
  8
1
  6
CONTINUOUS
 62
           3
100
AcDbLine
 10
1131.892633510131
 20
508.848484848477
 11
1138.996766090233
 21
517.951685370502
  0
LINE
  5
8C
100
AcDbEntity
  8
1
  6
CONTINUOUS
 62
           3
100
AcDbLine
 10
1138.996766090233
 20
517.951685370502
 11
1142.525021784917
 21
508.848484848477
  0
LINE
  5
8B
100
AcDbEntity
  8
1
  6
CONTINUOUS
 62
           3
100
AcDbLine
 10
1142.525021784917
 20
508.848484848477
 11
1146.570468047965
 21
508.848484848477
  0
LINE
  5
8A
100
AcDbEntity
  8
1
  6
CONTINUOUS
 62
           3
100
AcDbLine
 10
1146.570468047965
 20
508.848484848477
 11
1141.699769954961
 21
521.415301218603
  0
LINE
  5
89
100
AcDbEntity
  8
1
  6
CONTINUOUS
 62
           3
100
AcDbLine
 10
1141.699769954961
 20
521.415301218603
 11
1150.000000000043
 21
532.051175145079
  0
LINE
  5
88
100
AcDbEntity
  8
1
  6
CONTINUOUS
 62
           3
100
AcDbLine
 10
1150.000000000043
 20
532.051175145079
 11
1145.954553736985
 21
532.051175145079
  0
LINE
  5
87
100
AcDbEntity
  8
1
  6
CONTINUOUS
 62
           3
100
AcDbLine
 10
1145.954553736985
 20
532.051175145079
 11
1140.357327556699
 21
524.878917066824
  0
LINE
  5
86
100
AcDbEntity
  8
1
  6
CONTINUOUS
 62
           3
100
AcDbLine
 10
1140.357327556699
 20
524.878917066824
 11
1137.577474432742
 21
532.051175145079
  0
LINE
  5
85
100
AcDbEntity
  8
1
  6
CONTINUOUS
 62
           3
100
AcDbLine
 10
1147.599327633481
 20
506.19393939391
 11
1150.0
 21
500.0
  0
LINE
  5
84
100
AcDbEntity
  8
1
  6
CONTINUOUS
 62
           3
100
AcDbLine
 10
1147.599327633481
 20
506.19393939391
 11
1104.790178081308
 21
506.19393939391
  0
LINE
  5
83
100
AcDbEntity
  8
1
  6
CONTINUOUS
 62
           3
100
AcDbLine
 10
1150.0
 20
500.0
 11
1097.40919858119
 21
500.0
  0
LINE
  5
82
100
AcDbEntity
  8
1
  6
CONTINUOUS
 62
           3
100
AcDbLine
 10
1006.409184506759
 20
543.111781205662
 11
1009.661106684241
 21
556.38450847832
  0
LINE
  5
81
100
AcDbEntity
  8
1
  6
CONTINUOUS
 62
           3
100
AcDbLine
 10
1009.661106684241
 20
556.38450847832
 11
1022.225569149959
 21
556.38450847832
  0
LINE
  5
80
100
AcDbEntity
  8
1
  6
CONTINUOUS
 62
           3
100
AcDbLine
 10
1022.225569149959
 20
556.38450847832
 11
1018.973646972285
 21
543.111781205662
  0
LINE
  5
7F
100
AcDbEntity
  8
1
  6
CONTINUOUS
 62
           3
100
AcDbLine
 10
1018.973646972285
 20
543.111781205662
 11
1006.409184506759
 21
543.111781205662
  0
LINE
  5
7E
100
AcDbEntity
  8
1
  6
CONTINUOUS
 62
           3
100
AcDbLine
 10
1017.42155692428
 20
545.323902417793
 11
1009.045248613926
 21
545.323902417793
  0
LINE
  5
7D
100
AcDbEntity
  8
1
  6
CONTINUOUS
 62
           3
100
AcDbLine
 10
1019.589505042757
 20
554.172387266269
 11
1017.42155692428
 21
545.323902417793
  0
LINE
  5
7C
100
AcDbEntity
  8
1
  6
CONTINUOUS
 62
           3
100
AcDbLine
 10
1011.213196732267
 20
554.172387266269
 11
1019.589505042757
 21
554.172387266269
  0
LINE
  5
7B
100
AcDbEntity
  8
1
  6
CONTINUOUS
 62
           3
100
AcDbLine
 10
1009.045248613926
 20
545.323902417793
 11
1011.213196732267
 21
554.172387266269
  0
LINE
  5
7A
100
AcDbEntity
  8
1
  6
CONTINUOUS
 62
           3
100
AcDbLine
 10
1024.738461642952
 20
556.38450847832
 11
1021.486539465415
 21
543.111781205662
  0
LINE
  5
79
100
AcDbEntity
  8
1
  6
CONTINUOUS
 62
           3
100
AcDbLine
 10
1024.738461642952
 20
556.38450847832
 11
1037.302924108531
 21
556.38450847832
  0
LINE
  5
78
100
AcDbEntity
  8
1
  6
CONTINUOUS
 62
           3
100
AcDbLine
 10
1037.302924108531
 20
556.38450847832
 11
1035.435399998678
 21
548.762204858332
  0
LINE
  5
77
100
AcDbEntity
  8
1
  6
CONTINUOUS
 62
           3
100
AcDbLine
 10
1034.051001930998
 20
543.111781205662
 11
1031.956924853359
 21
543.111781205662
  0
LINE
  5
76
100
AcDbEntity
  8
1
  6
CONTINUOUS
 62
           3
100
AcDbLine
 10
1031.956924853359
 20
543.111781205662
 11
1033.040898912732
 21
547.536023629844
  0
LINE
  5
75
100
AcDbEntity
  8
1
  6
CONTINUOUS
 62
           3
100
AcDbLine
 10
1033.040898912732
 20
547.536023629844
 11
1024.664590602202
 21
547.536023629844
  0
LINE
  5
74
100
AcDbEntity
  8
1
  6
CONTINUOUS
 62
           3
100
AcDbLine
 10
1025.206577631794
 20
549.748144842033
 11
1033.582885942174
 21
549.748144842033
  0
LINE
  5
73
100
AcDbEntity
  8
1
  6
CONTINUOUS
 62
           3
100
AcDbLine
 10
1033.582885942174
 20
549.748144842033
 11
1034.666860001496
 21
554.172387266269
  0
LINE
  5
72
100
AcDbEntity
  8
1
  6
CONTINUOUS
 62
           3
100
AcDbLine
 10
1034.666860001496
 20
554.172387266269
 11
1026.290551690978
 21
554.172387266269
  0
LINE
  5
71
100
AcDbEntity
  8
1
  6
CONTINUOUS
 62
           3
100
AcDbLine
 10
1026.290551690978
 20
554.172387266269
 11
1025.206577631794
 21
549.748144842033
  0
LINE
  5
70
100
AcDbEntity
  8
1
  6
CONTINUOUS
 62
           3
100
AcDbLine
 10
1034.998720317111
 20
546.979895810782
 11
1034.051001930998
 21
543.111781205662
  0
LINE
  5
6F
100
AcDbEntity
  8
1
  6
CONTINUOUS
 62
           3
100
AcDbLine
 10
1021.486539465415
 20
543.111781205662
 11
1023.580616543091
 21
543.111781205662
  0
LINE
  5
6E
100
AcDbEntity
  8
1
  6
CONTINUOUS
 62
           3
100
AcDbLine
 10
1023.580616543091
 20
543.111781205662
 11
1024.664590602202
 21
547.536023629844
  0
LINE
  5
6D
100
AcDbEntity
  8
1
  6
CONTINUOUS
 62
           3
100
AcDbLine
 10
1041.909893679258
 20
556.38450847832
 11
1039.815816601695
 21
556.38450847832
  0
LINE
  5
6C
100
AcDbEntity
  8
1
  6
CONTINUOUS
 62
           3
100
AcDbLine
 10
1039.815816601695
 20
556.38450847832
 11
1036.563894424129
 21
543.111781205662
  0
LINE
  5
6B
100
AcDbEntity
  8
1
  6
CONTINUOUS
 62
           3
100
AcDbLine
 10
1036.563894424129
 20
543.111781205662
 11
1038.657971501849
 21
543.111781205662
  0
LINE
  5
6A
100
AcDbEntity
  8
1
  6
CONTINUOUS
 62
           3
100
AcDbLine
 10
1038.657971501849
 20
543.111781205662
 11
1041.909893679258
 21
556.38450847832
  0
LINE
  5
69
100
AcDbEntity
  8
1
  6
CONTINUOUS
 62
           3
100
AcDbLine
 10
1041.170863994834
 20
543.111781205662
 11
1044.422786172377
 21
556.38450847832
  0
LINE
  5
68
100
AcDbEntity
  8
1
  6
CONTINUOUS
 62
           3
100
AcDbLine
 10
1044.422786172377
 20
556.38450847832
 11
1056.987248637968
 21
556.38450847832
  0
LINE
  5
67
100
AcDbEntity
  8
1
  6
CONTINUOUS
 62
           3
100
AcDbLine
 10
1056.987248637968
 20
556.38450847832
 11
1055.849075875841
 21
551.739053932891
  0
LINE
  5
66
100
AcDbEntity
  8
1
  6
CONTINUOUS
 62
           3
100
AcDbLine
 10
1053.735326460446
 20
543.111781205662
 11
1041.170863994834
 21
543.111781205662
  0
LINE
  5
65
100
AcDbEntity
  8
1
  6
CONTINUOUS
 62
           3
100
AcDbLine
 10
1052.183236412398
 20
545.323902417793
 11
1043.806928102069
 21
545.323902417793
  0
LINE
  5
64
100
AcDbEntity
  8
1
  6
CONTINUOUS
 62
           3
100
AcDbLine
 10
1054.351184530693
 20
554.172387266269
 11
1053.754998798315
 21
551.739053932891
  0
LINE
  5
63
100
AcDbEntity
  8
1
  6
CONTINUOUS
 62
           3
100
AcDbLine
 10
1045.974876220396
 20
554.172387266269
 11
1054.351184530693
 21
554.172387266269
  0
LINE
  5
62
100
AcDbEntity
  8
1
  6
CONTINUOUS
 62
           3
100
AcDbLine
 10
1043.806928102069
 20
545.323902417793
 11
1045.974876220396
 21
554.172387266269
  0
LINE
  5
61
100
AcDbEntity
  8
1
  6
CONTINUOUS
 62
           3
100
AcDbLine
 10
1055.361287549218
 20
549.748144842033
 11
1049.079056316412
 21
549.748144842033
  0
LINE
  5
60
100
AcDbEntity
  8
1
  6
CONTINUOUS
 62
           3
100
AcDbLine
 10
1055.361287549218
 20
549.748144842033
 11
1053.735326460446
 21
543.111781205662
  0
LINE
  5
5F
100
AcDbEntity
  8
1
  6
CONTINUOUS
 62
           3
100
AcDbLine
 10
1049.079056316412
 20
549.748144842033
 11
1048.537069286765
 21
547.536023629844
  0
LINE
  5
5E
100
AcDbEntity
  8
1
  6
CONTINUOUS
 62
           3
100
AcDbLine
 10
1048.537069286765
 20
547.536023629844
 11
1052.725223442165
 21
547.536023629844
  0
LINE
  5
5D
100
AcDbEntity
  8
1
  6
CONTINUOUS
 62
           3
100
AcDbLine
 10
1052.725223442165
 20
547.536023629844
 11
1052.183236412398
 21
545.323902417793
  0
LINE
  5
5C
100
AcDbEntity
  8
1
  6
CONTINUOUS
 62
           3
100
AcDbLine
 10
1053.754998798315
 20
551.739053932891
 11
1055.849075875841
 21
551.739053932891
  0
LINE
  5
5B
100
AcDbEntity
  8
1
  6
CONTINUOUS
 62
           3
100
AcDbLine
 10
1056.248218953562
 20
543.111781205662
 11
1058.342296031122
 21
543.111781205662
  0
LINE
  5
5A
100
AcDbEntity
  8
1
  6
CONTINUOUS
 62
           3
100
AcDbLine
 10
1058.342296031122
 20
543.111781205662
 11
1061.594218208691
 21
556.38450847832
  0
LINE
  5
59
100
AcDbEntity
  8
1
  6
CONTINUOUS
 62
           3
100
AcDbLine
 10
1059.500141131127
 20
556.38450847832
 11
1056.248218953562
 21
543.111781205662
  0
LINE
  5
58
100
AcDbEntity
  8
1
  6
CONTINUOUS
 62
           3
100
AcDbLine
 10
1061.594218208691
 20
556.38450847832
 11
1059.500141131127
 21
556.38450847832
  0
LINE
  5
57
100
AcDbEntity
  8
1
  6
CONTINUOUS
 62
           3
100
AcDbLine
 10
1060.855188524292
 20
543.111781205662
 11
1064.107110701807
 21
556.38450847832
  0
LINE
  5
56
100
AcDbEntity
  8
1
  6
CONTINUOUS
 62
           3
100
AcDbLine
 10
1064.107110701807
 20
556.38450847832
 11
1067.248226318148
 21
556.38450847832
  0
LINE
  5
55
100
AcDbEntity
  8
1
  6
CONTINUOUS
 62
           3
100
AcDbLine
 10
1067.248226318148
 20
556.38450847832
 11
1071.732064184423
 21
544.770872114746
  0
LINE
  5
54
100
AcDbEntity
  8
1
  6
CONTINUOUS
 62
           3
100
AcDbLine
 10
1071.732064184423
 20
544.770872114746
 11
1074.577496089776
 21
556.38450847832
  0
LINE
  5
53
100
AcDbEntity
  8
1
  6
CONTINUOUS
 62
           3
100
AcDbLine
 10
1074.577496089776
 20
556.38450847832
 11
1076.67157316739
 21
556.38450847832
  0
LINE
  5
52
100
AcDbEntity
  8
1
  6
CONTINUOUS
 62
           3
100
AcDbLine
 10
1076.67157316739
 20
556.38450847832
 11
1073.41965098977
 21
543.111781205662
  0
LINE
  5
51
100
AcDbEntity
  8
1
  6
CONTINUOUS
 62
           3
100
AcDbLine
 10
1073.41965098977
 20
543.111781205662
 11
1070.176972501001
 21
543.111781205662
  0
LINE
  5
50
100
AcDbEntity
  8
1
  6
CONTINUOUS
 62
           3
100
AcDbLine
 10
1070.176972501001
 20
543.111781205662
 11
1066.395816165291
 21
552.905394629535
  0
LINE
  5
4F
100
AcDbEntity
  8
1
  6
CONTINUOUS
 62
           3
100
AcDbLine
 10
1066.395816165291
 20
552.905394629535
 11
1065.755267898781
 21
554.564485538598
  0
LINE
  5
4E
100
AcDbEntity
  8
1
  6
CONTINUOUS
 62
           3
100
AcDbLine
 10
1065.755267898781
 20
554.564485538598
 11
1062.949265601852
 21
543.111781205662
  0
LINE
  5
4D
100
AcDbEntity
  8
1
  6
CONTINUOUS
 62
           3
100
AcDbLine
 10
1062.949265601852
 20
543.111781205662
 11
1060.855188524292
 21
543.111781205662
  0
LINE
  5
4C
100
AcDbEntity
  8
1
  6
CONTINUOUS
 62
           3
100
AcDbLine
 10
1075.932543482886
 20
543.111781205662
 11
1083.443973761783
 21
556.38450847832
  0
LINE
  5
4B
100
AcDbEntity
  8
1
  6
CONTINUOUS
 62
           3
100
AcDbLine
 10
1083.443973761783
 20
556.38450847832
 11
1087.489420024758
 21
556.38450847832
  0
LINE
  5
4A
100
AcDbEntity
  8
1
  6
CONTINUOUS
 62
           3
100
AcDbLine
 10
1087.489420024758
 20
556.38450847832
 11
1088.49700594852
 21
543.111781205662
  0
LINE
  5
49
100
AcDbEntity
  8
1
  6
CONTINUOUS
 62
           3
100
AcDbLine
 10
1088.49700594852
 20
543.111781205662
 11
1086.467323785451
 21
543.111781205662
  0
LINE
  5
48
100
AcDbEntity
  8
1
  6
CONTINUOUS
 62
           3
100
AcDbLine
 10
1086.467323785451
 20
543.111781205662
 11
1086.299392798184
 21
545.323902417793
  0
LINE
  5
47
100
AcDbEntity
  8
1
  6
CONTINUOUS
 62
           3
100
AcDbLine
 10
1086.299392798184
 20
545.323902417793
 11
1079.56324551782
 21
545.323902417793
  0
LINE
  5
46
100
AcDbEntity
  8
1
  6
CONTINUOUS
 62
           3
100
AcDbLine
 10
1079.56324551782
 20
545.323902417793
 11
1078.311340471457
 21
543.111781205662
  0
LINE
  5
45
100
AcDbEntity
  8
1
  6
CONTINUOUS
 62
           3
100
AcDbLine
 10
1078.311340471457
 20
543.111781205662
 11
1075.932543482886
 21
543.111781205662
  0
LINE
  5
44
100
AcDbEntity
  8
1
  6
CONTINUOUS
 62
           3
100
AcDbLine
 10
1080.815150564351
 20
547.536023629844
 11
1086.131461810862
 21
547.536023629844
  0
LINE
  5
43
100
AcDbEntity
  8
1
  6
CONTINUOUS
 62
           3
100
AcDbLine
 10
1086.131461810862
 20
547.536023629844
 11
1085.627668849007
 21
554.172387266269
  0
LINE
  5
42
100
AcDbEntity
  8
1
  6
CONTINUOUS
 62
           3
100
AcDbLine
 10
1085.627668849007
 20
554.172387266269
 11
1084.570865703717
 21
554.172387266269
  0
LINE
  5
41
100
AcDbEntity
  8
1
  6
CONTINUOUS
 62
           3
100
AcDbLine
 10
1080.815150564351
 20
547.536023629844
 11
1084.570865703717
 21
554.172387266269
  0
LINE
  5
40
100
AcDbEntity
  8
1
  6
CONTINUOUS
 62
           3
100
AcDbLine
 10
1094.261820619209
 20
556.38450847832
 11
1091.00989844164
 21
543.111781205662
  0
LINE
  5
3F
100
AcDbEntity
  8
1
  6
CONTINUOUS
 62
           3
100
AcDbLine
 10
1091.00989844164
 20
543.111781205662
 11
1103.574360907219
 21
543.111781205662
  0
LINE
  5
3E
100
AcDbEntity
  8
1
  6
CONTINUOUS
 62
           3
100
AcDbLine
 10
1103.574360907219
 20
543.111781205662
 11
1104.11634793688
 21
545.323902417793
  0
LINE
  5
3D
100
AcDbEntity
  8
1
  6
CONTINUOUS
 62
           3
100
AcDbLine
 10
1104.11634793688
 20
545.323902417793
 11
1093.64596254886
 21
545.323902417793
  0
LINE
  5
3C
100
AcDbEntity
  8
1
  6
CONTINUOUS
 62
           3
100
AcDbLine
 10
1093.64596254886
 20
545.323902417793
 11
1096.355897696823
 21
556.38450847832
  0
LINE
  5
3B
100
AcDbEntity
  8
1
  6
CONTINUOUS
 62
           3
100
AcDbLine
 10
1096.355897696823
 20
556.38450847832
 11
1094.261820619209
 21
556.38450847832
  0
LINE
  5
3A
100
AcDbEntity
  8
1
  6
CONTINUOUS
 62
           3
100
AcDbLine
 10
1140.877132983492
 20
550.200111213842
 11
1140.877132983492
 21
547.451055788282
  0
LINE
  5
39
100
AcDbEntity
  8
1
  6
CONTINUOUS
 62
           3
100
AcDbLine
 10
1140.004685284377
 20
547.451055788282
 11
1140.004685284377
 21
554.309523963456
  0
LINE
  5
38
100
AcDbEntity
  8
1
  6
CONTINUOUS
 62
           3
100
AcDbLine
 10
1140.004685284377
 20
554.309523963456
 11
1142.446605143617
 21
554.309523963456
  0
LINE
  5
37
100
AcDbEntity
  8
1
  6
CONTINUOUS
 62
           3
100
AcDbLine
 10
1142.446605143617
 20
554.309523963456
 11
1142.742961725969
 21
554.309523963456
  0
LINE
  5
36
100
AcDbEntity
  8
1
  6
CONTINUOUS
 62
           3
100
AcDbLine
 10
1144.576596240535
 20
549.330689554626
 11
1144.576596240535
 21
547.451055788282
  0
LINE
  5
35
100
AcDbEntity
  8
1
  6
CONTINUOUS
 62
           3
100
AcDbLine
 10
1144.576596240535
 20
547.451055788282
 11
1143.61540942503
 21
547.451055788282
  0
LINE
  5
34
100
AcDbEntity
  8
1
  6
CONTINUOUS
 62
           3
100
AcDbLine
 10
1143.61540942503
 20
547.451055788282
 11
1143.61540942503
 21
549.0729110559
  0
LINE
  5
33
100
AcDbEntity
  8
1
  6
CONTINUOUS
 62
           3
100
AcDbLine
 10
1142.60219468511
 20
550.200111213842
 11
1140.877132983492
 21
550.200111213842
  0
LINE
  5
32
100
AcDbEntity
  8
1
  6
CONTINUOUS
 62
           3
100
AcDbLine
 10
1140.877132983492
 20
547.451055788282
 11
1140.004685284377
 21
547.451055788282
  0
LINE
  5
31
100
AcDbEntity
  8
1
  6
CONTINUOUS
 62
           3
100
AcDbLine
 10
1140.877132983492
 20
551.050334541276
 11
1142.864616211434
 21
551.050334541276
  0
LINE
  5
30
100
AcDbEntity
  8
1
  6
CONTINUOUS
 62
           3
100
AcDbLine
 10
1142.733105975578
 20
553.505992531278
 11
1140.877132983492
 21
553.505992531278
  0
LINE
  5
2F
100
AcDbEntity
  8
1
  6
CONTINUOUS
 62
           3
100
AcDbLine
 10
1140.877132983492
 20
553.505992531278
 11
1140.877132983492
 21
551.050334541276
  0
ENDBLK
  5
E3
100
AcDbEntity
  8
0
100
AcDbBlockEnd
  0
BLOCK
  5
2A
100
AcDbEntity
  8
0
100
AcDbBlockBegin
  2
WANNE_SMART_LINE_40
 70
           0
 10
0.0
 20
0.0
 30
0.0
  3
WANNE_SMART_LINE_40
  1

  0
ARC
  5
103
100
AcDbEntity
  8
1
  6
CONTINUOUS
 62
           7
100
AcDbCircle
 10
824.717639624581
 20
236.999999999998
 40
100.0
100
AcDbArc
 50
-100.007979801441
 51
-90.0
  0
ARC
  5
102
100
AcDbEntity
  8
1
  6
CONTINUOUS
 62
           7
100
AcDbCircle
 10
1091.551668425812
 20
129.999999999998
 40
100.0
100
AcDbArc
 50
-100.007979801441
 51
-90.0
  0
SPLINE
  5
101
100
AcDbEntity
  8
1
  6
CONTINUOUS
 62
           7
100
AcDbSpline
210
0.0
220
0.0
230
1.0
 70
           0
 71
           3
 72
          41
 73
          38
 74
          77
 42
0.00000000001
 43
0.00000000001
 44
0.00000000001
 40
-1.7747031480310227
 40
-0.1491110169697265
 40
1.4764811140915648
 40
3.3442545556990328
 40
5.8688042616062113
 40
9.2453332459461635
 40
13.458047720742538
 40
18.410297395420418
 40
23.970225639105841
 40
29.980492803509257
 40
36.267452290357205
 40
42.647709713833649
 40
48.934669200681718
 40
54.944936365086079
 40
60.504864608772159
 40
65.457114283449542
 40
69.66982875824489
 40
73.046357742585712
 40
75.570907448493458
 40
77.438680890100414
 40
79.064273021160062
 40
80.932046462766834
 40
83.456596168673912
 40
86.83312515301435
 40
91.045839627811432
 40
95.998089302490342
 40
101.55801754617596
 40
107.56828471057841
 40
113.85524419742653
 40
120.23550162090253
 40
126.52246110775094
 40
132.5327282721546
 40
138.09265651583942
 40
143.04490619051842
 40
147.25762066531451
 40
150.63414964965438
 40
153.1586993555629
 40
155.02647279717121
 40
156.65206492823179
 40
158.27765705929309
 40
159.90324919035439
 10
295.60014641793902
 20
189.35402644350191
 30
0.0
 10
294.58114442194318
 20
188.08746230824269
 30
0.0
 10
292.61386144809688
 20
187.3247652799607
 30
0.0
 10
289.72831139815389
 20
186.76604152023131
 30
0.0
 10
285.9256572677437
 20
186.47319976571541
 30
0.0
 10
281.31420204598697
 20
186.4495938133457
 30
0.0
 10
276.02731421150662
 20
186.70354965017029
 30
0.0
 10
270.22419188966393
 20
187.22911381902941
 30
0.0
 10
264.08018385031318
 20
188.0118069971295
 30
0.0
 10
257.78145471304271
 20
189.02851543377321
 30
0.0
 10
251.51894396962871
 20
190.2486154208375
 30
0.0
 10
245.48242526663131
 20
191.6349362159813
 30
0.0
 10
239.85459846592559
 20
193.14490703659521
 30
0.0
 10
234.805031842174
 20
194.73158704647469
 30
0.0
 10
230.4851926948254
 20
196.34560880725101
 30
0.0
 10
227.01737719058681
 20
197.9331195496666
 30
0.0
 10
224.5020731807347
 20
199.4535856191458
 30
0.0
 10
222.9190013756488
 20
200.84850236077591
 30
0.0
 10
222.3998535820522
 20
202.3889683113789
 30
0.0
 10
223.41885557804449
 20
203.65553244663869
 30
0.0
 10
225.38613855189101
 20
204.41822947492119
 30
0.0
 10
228.2716886018334
 20
204.97695323465061
 30
0.0
 10
232.07434273224521
 20
205.2697949891658
 30
0.0
 10
236.6857979540018
 20
205.29340094153619
 30
0.0
 10
241.97268578848431
 20
205.03944510471069
 30
0.0
 10
247.77580811032519
 20
204.5138809358518
 30
0.0
 10
253.91981614967591
 20
203.7311877577522
 30
0.0
 10
260.21854528694672
 20
202.714479321108
 30
0.0
 10
266.48105603035953
 20
201.4943793340444
 30
0.0
 10
272.51757473335869
 20
200.10805853889929
 30
0.0
 10
278.14540153406142
 20
198.59808771828739
 30
0.0
 10
283.19496815781372
 20
197.01140770840721
 30
0.0
 10
287.51480730516442
 20
195.3973859476298
 30
0.0
 10
290.9826228094023
 20
193.80987520521469
 30
0.0
 10
293.49792681925328
 20
192.2894091357357
 30
0.0
 10
295.0809986243421
 20
190.8944923941049
 30
0.0
 10
295.60014641793902
 20
189.35402644350191
 30
0.0
 10
294.58114442194318
 20
188.08746230824269
 30
0.0
 11
295.12596712242339
 21
188.76464733360564
 31
0.0
 11
294.50821026563051
 21
188.17567702722974
 31
0.0
 11
293.74458509621235
 21
187.76313615882808
 31
0.0
 11
292.58792443989682
 21
187.37460087825329
 31
0.0
 11
291.37938976718135
 21
187.08573679426377
 31
0.0
 11
289.7181214438537
 21
186.8133932952521
 31
0.0
 11
288.03647321192557
 21
186.63575334628194
 31
0.0
 11
285.92344253709445
 21
186.51112551693348
 31
0.0
 11
283.80598240096487
 21
186.46234919002114
 31
0.0
 11
281.31448861521034
 21
186.48269208066321
 31
0.0
 11
278.82356796790236
 21
186.56923150594031
 31
0.0
 11
276.02922123792695
 21
186.73310861271295
 31
0.0
 11
273.23868856079224
 21
186.95610364457093
 31
0.0
 11
270.22709537009121
 21
187.2564965605394
 31
0.0
 11
267.22130914024478
 21
187.61165495952787
 31
0.0
 11
264.08392303956765
 21
188.03792149613653
 31
0.0
 11
260.95401531739947
 21
188.51641703075936
 31
0.0
 11
257.7860153572218
 21
189.0541266327175
 31
0.0
 11
254.62713668540226
 21
189.64305863256422
 31
0.0
 11
251.52444931205213
 21
190.27441541695111
 31
0.0
 11
248.4327726235488
 21
190.95737219356531
 31
0.0
 11
245.48915274190421
 21
191.6616380100719
 31
0.0
 11
242.55898781080543
 21
192.41930741475971
 31
0.0
 11
239.86301237089563
 21
193.17330730454313
 31
0.0
 11
237.18386474092583
 21
193.98410773022221
 31
0.0
 11
234.81618835669661
 21
194.76274967802371
 31
0.0
 11
232.47082500151262
 21
195.60371688892332
 31
0.0
 11
230.50036319329567
 21
196.38043873136024
 31
0.0
 11
228.56024238201931
 21
197.22682042201563
 31
0.0
 11
227.04328652180811
 21
197.97404304318724
 31
0.0
 11
225.57814932403949
 21
198.80311265140017
 31
0.0
 11
224.54361900217424
 21
199.49140439718599
 31
0.0
 11
223.59218032318802
 21
200.25533369905213
 31
0.0
 11
223.01790382871889
 21
200.90611774569902
 31
0.0
 11
222.6414322403898
 21
201.67213256219219
 31
0.0
 11
222.57879307051508
 21
202.35710415155634
 31
0.0
 11
222.87403287756601
 21
202.97834742127526
 31
0.0
 11
223.49178973435752
 21
203.56731772765153
 31
0.0
 11
224.25541490377523
 21
203.97985859605345
 31
0.0
 11
225.41207556009084
 21
204.36839387662846
 31
0.0
 11
226.62061023280614
 21
204.6572579606181
 31
0.0
 11
228.28187855613385
 21
204.92960145962974
 31
0.0
 11
229.96352678806238
 21
205.10724140859963
 31
0.0
 11
232.07655746289419
 21
205.2318692379479
 31
0.0
 11
234.19401759902394
 21
205.28064556486038
 31
0.0
 11
236.68551138477878
 21
205.26030267421845
 31
0.0
 11
239.1764320320876
 21
205.17376324894113
 31
0.0
 11
241.97077876206359
 21
205.00988614216817
 31
0.0
 11
244.76131143919812
 21
204.78689111031014
 31
0.0
 11
247.77290462989814
 21
204.48649819434183
 31
0.0
 11
250.77869085974407
 21
204.13133979535363
 31
0.0
 11
253.91607696042144
 21
203.70507325874505
 31
0.0
 11
257.0459846825899
 21
203.22657772412208
 31
0.0
 11
260.2139846427674
 21
202.68886812216385
 31
0.0
 11
263.37286331458631
 21
202.09993612231739
 31
0.0
 11
266.4755506879365
 21
201.46857933793052
 31
0.0
 11
269.5672273764406
 21
200.78562256131585
 31
0.0
 11
272.51084725808528
 21
200.08135674480909
 31
0.0
 11
275.4410121891832
 21
199.32368734012186
 31
0.0
 11
278.13698762909166
 21
198.56968745033919
 31
0.0
 11
280.81613525906084
 21
197.75888702466023
 31
0.0
 11
283.18381164329116
 21
196.98024507685815
 31
0.0
 11
285.52917499847644
 21
196.13927786595795
 31
0.0
 11
287.4996368066939
 21
195.36255602352068
 31
0.0
 11
289.43975761797049
 21
194.51617433286526
 31
0.0
 11
290.95671347818092
 21
193.76895171169403
 31
0.0
 11
292.42185067594858
 21
192.93988210348147
 31
0.0
 11
293.45638099781416
 21
192.25159035769551
 31
0.0
 11
294.40781967680141
 21
191.48766105582911
 31
0.0
 11
294.98209617127173
 21
190.83687700918188
 31
0.0
 11
295.35856775960127
 21
190.07086219268857
 31
0.0
 11
295.41237650385511
 21
189.37491486389121
 31
0.0
 11
295.09064541994121
 21
188.72074437587244
 31
0.0
 11
294.83589492094217
 21
188.40410334205754
 31
0.0
 11
295.0906454199411
 21
188.7207443758723
 31
0.0
 11
295.35422634456063
 21
189.04836114912047
 31
0.0
 11
295.12596712242339
 21
188.76464733360564
 31
0.0
  0
CIRCLE
  5
100
100
AcDbEntity
  8
WANNE
  6
CONTINUOUS
 62
           7
100
AcDbCircle
 10
259.000000000006
 20
422.0
 40
26.0
  0
CIRCLE
  5
FF
100
AcDbEntity
  8
WANNE
  6
CONTINUOUS
 62
           7
100
AcDbCircle
 10
259.000000000006
 20
422.0
 40
45.0
  0
ARC
  5
FE
100
AcDbEntity
  8
1
  6
CONTINUOUS
 62
           7
100
AcDbCircle
 10
897.418685758519
 20
375.000000000003
 40
450.000000000023
100
AcDbArc
 50
-8.7428473135
 51
8.742847313499
  0
ARC
  5
FD
100
AcDbEntity
  8
1
  6
CONTINUOUS
 62
           7
100
AcDbCircle
 10
1144.513809142236
 20
336.99999999999
 40
199.999999999992
100
AcDbArc
 50
-90.000000000001
 51
-8.742847313497
  0
ARC
  5
FC
100
AcDbEntity
  8
1
  6
CONTINUOUS
 62
           7
100
AcDbCircle
 10
1144.513809142232
 20
413.000000000001
 40
199.999999999998
100
AcDbArc
 50
8.7428473135
 51
90.0
  0
ARC
  5
FB
100
AcDbEntity
  8
1
  6
CONTINUOUS
 62
           7
100
AcDbCircle
 10
1130.000000000004
 20
375.0
 40
449.999999999995
100
AcDbArc
 50
0.0
 51
35.450542639176
  0
ARC
  5
FA
100
AcDbEntity
  8
1
  6
CONTINUOUS
 62
           7
100
AcDbCircle
 10
620.000000000036
 20
467.893745738648
 40
600.000000000033
100
AcDbArc
 50
179.999999999999
 51
-158.093687995729
  0
ARC
  5
F9
100
AcDbEntity
  8
1
  6
CONTINUOUS
 62
           7
100
AcDbCircle
 10
132.224460152456
 20
273.893255688592
 40
75.090985960606
100
AcDbArc
 50
-156.573990819354
 51
-100.019625688823
  0
ARC
  5
F8
100
AcDbEntity
  8
1
  6
CONTINUOUS
 62
           7
100
AcDbCircle
 10
125.774975642158
 20
644.999999999997
 40
75.000000000003
100
AcDbArc
 50
90.000000000003
 51
160.284785582051
  0
ARC
  5
F7
100
AcDbEntity
  8
1
  6
CONTINUOUS
 62
           7
100
AcDbCircle
 10
620.000000000036
 20
467.893745738648
 40
600.000000000032
100
AcDbArc
 50
160.284785582055
 51
179.999999999999
  0
ARC
  5
F6
100
AcDbEntity
  8
1
  6
CONTINUOUS
 62
           7
100
AcDbCircle
 10
1333.654118544162
 20
230.0
 40
200.000000000002
100
AcDbArc
 50
-90.0
 51
-35.450542639177
  0
ARC
  5
F5
100
AcDbEntity
  8
1
  6
CONTINUOUS
 62
           7
100
AcDbCircle
 10
1130.000000000004
 20
375.0
 40
449.999999999998
100
AcDbArc
 50
-35.450542639176
 51
0.0
  0
ARC
  5
F4
100
AcDbEntity
  8
1
  6
CONTINUOUS
 62
           7
100
AcDbCircle
 10
1333.654118544167
 20
520.000000000004
 40
199.999999999996
100
AcDbArc
 50
35.450542639175
 51
90.000000000001
  0
ARC
  5
F3
100
AcDbEntity
  8
1
  6
CONTINUOUS
 62
           7
100
AcDbCircle
 10
256.455767420086
 20
337.281506859613
 40
99.999999999999
100
AcDbArc
 50
-164.857269274033
 51
-100.00797980144
  0
ARC
  5
F2
100
AcDbEntity
  8
1
  6
CONTINUOUS
 62
           7
100
AcDbCircle
 10
739.094807546893
 20
467.893745738629
 40
599.999999999513
100
AcDbArc
 50
174.82416733596
 51
-164.857269274016
  0
ARC
  5
F1
100
AcDbEntity
  8
1
  6
CONTINUOUS
 62
           7
100
AcDbCircle
 10
241.133538143334
 20
512.999999999981
 40
100.000000000019
100
AcDbArc
 50
90.000000000006
 51
174.824167335956
  0
LINE
  5
F0
100
AcDbEntity
  8
1
  6
CONTINUOUS
 62
           7
100
AcDbLine
 10
824.717639624581
 20
136.999999999998
 11
1144.513809142236
 21
136.999999999998
  0
LINE
  5
EF
100
AcDbEntity
  8
1
  6
CONTINUOUS
 62
           7
100
AcDbLine
 10
241.133538143334
 20
613.0
 11
1144.513809142233
 21
613.0
  0
LINE
  5
EE
100
AcDbEntity
  8
1
  6
CONTINUOUS
 62
           7
100
AcDbLine
 10
807.339106233676
 20
138.521644118204
 11
239.077234029182
 21
238.80315097782
  0
LINE
  5
ED
100
AcDbEntity
  8
1
  6
CONTINUOUS
 62
           7
100
AcDbLine
 10
1074.173135034908
 20
31.521644118205
 11
119.159717637206
 21
199.947541306034
  0
LINE
  5
EC
100
AcDbEntity
  8
1
  6
CONTINUOUS
 62
           7
100
AcDbLine
 10
1091.551668425812
 20
29.999999999998
 11
1333.654118544162
 21
29.999999999998
  0
LINE
  5
EB
100
AcDbEntity
  8
1
  6
CONTINUOUS
 62
           7
100
AcDbLine
 10
125.774975642157
 20
720.0
 11
1333.654118544167
 21
720.0
  0
LINE
  5
EA
100
AcDbEntity
  8
1
  6
CONTINUOUS
 62
           7
100
AcDbLine
 10
850.0
 20
0.0
 11
0.0
 21
150.0
  0
LINE
  5
E9
100
AcDbEntity
  8
1
  6
CONTINUOUS
 62
           7
100
AcDbLine
 10
0.0
 20
750.0
 11
1600.0
 21
750.0
  0
LINE
  5
E8
100
AcDbEntity
  8
1
  6
CONTINUOUS
 62
           7
100
AcDbLine
 10
0.0
 20
750.0
 11
0.0
 21
150.0
  0
LINE
  5
E7
100
AcDbEntity
  8
1
  6
CONTINUOUS
 62
           7
100
AcDbLine
 10
1600.0
 20
750.0
 11
1600.0
 21
0.0
  0
LINE
  5
E6
100
AcDbEntity
  8
1
  6
CONTINUOUS
 62
           7
100
AcDbLine
 10
850.0
 20
0.0
 11
1600.0
 21
0.0
  0
LINE
  5
E5
100
AcDbEntity
  8
MITTELLINIEN
  6
DOT_CENTER
 62
           3
100
AcDbLine
 10
324.678019000013
 20
422.0
 11
195.010045000002
 21
422.0
  0
LINE
  5
E4
100
AcDbEntity
  8
MITTELLINIEN
  6
DOT_CENTER
 62
           3
100
AcDbLine
 10
259.0
 20
356.321980999999
 11
259.0
 21
485.989954999999
  0
ENDBLK
  5
104
100
AcDbEntity
  8
0
100
AcDbBlockEnd
  0
ENDSEC
  0
SECTION
  2
ENTITIES
  0
TEXT
  5
108
100
AcDbEntity
  8
1
 62
           3
100
AcDbText
 10
309.0
 20
472.0
 40
35.0
  1
ø 52
 41
0.71262
  7
CONVERTER_1
100
AcDbText
  0
MTEXT
  5
107
100
AcDbEntity
  8
1
 62
           2
100
AcDbMText
 10
1150.0
 20
415.0
 30
0.0
 40
35.0
 41
0.0
 71
           9
 72
           1
  1
Smart-Line 40
  7
CONVERTER_1
  0
INSERT
  5
2D
100
AcDbEntity
  8
0
100
AcDbBlockReference
  2
DLX
 10
0.0
 20
0.0
  0
INSERT
  5
2E
100
AcDbEntity
  8
0
100
AcDbBlockReference
  2
WANNE_SMART_LINE_40
 10
0.0
 20
0.0
  0
ENDSEC
  0
SECTION
  2
OBJECTS
  0
DICTIONARY
  5
19
100
AcDbDictionary
  3
ACAD_GROUP
350
1A
  3
ACAD_MLINESTYLE
350
1B
  0
DICTIONARY
  5
1A
102
{ACAD_REACTORS
330
19
102
}
100
AcDbDictionary
  0
DICTIONARY
  5
1B
102
{ACAD_REACTORS
330
19
102
}
100
AcDbDictionary
  3
STANDARD
350
1C
  0
MLINESTYLE
  5
1C
102
{ACAD_REACTORS
330
1B
102
}
100
AcDbMlineStyle
  2
STANDARD
 70
           0
  3

 62
           0
 51
90.0
 52
90.0
 71
           2
 49
0.5
 62
         256
  6
BYLAYER
 49
-0.5
 62
         256
  6
BYLAYER
  0
ENDSEC
  0
EOF
