  0
SECTION
  2
HEADER
  9
$ACADVER
  1
AC1014
  9
$ACADMAINTVER
 70
           0
  9
$DWGCODEPAGE
  3
ANSI_1252
  9
$INSBASE
 10
0.0
 20
0.0
 30
0.0
  9
$EXTMIN
 10
1.000000000000E+20
 20
1.000000000000E+20
 30
1.000000000000E+20
  9
$EXTMAX
 10
-1.000000000000E+20
 20
-1.000000000000E+20
 30
-1.000000000000E+20
  9
$LIMMIN
 10
0.0
 20
0.0
  9
$LIMMAX
 10
0.0
 20
0.0
  9
$ORTHOMODE
 70
           0
  9
$REGENMODE
 70
           1
  9
$FILLMODE
 70
           1
  9
$QTEXTMODE
 70
           0
  9
$MIRRTEXT
 70
           1
  9
$DRAGMODE
 70
           2
  9
$LTSCALE
 40
1.0
  9
$OSMODE
 70
           0
  9
$ATTMODE
 70
           1
  9
$TEXTSIZE
 40
0.2
  9
$TRACEWID
 40
0.05
  9
$TEXTSTYLE
  7
STANDARD
  9
$CLAYER
  8
0
  9
$CELTYPE
  6
CONTINUOUS
  9
$CECOLOR
 62
         256
  9
$CELTSCALE
 40
1.0
  9
$DELOBJ
 70
           1
  9
$DISPSILH
 70
           0
  9
$DIMSCALE
 40
1.0
  9
$DIMASZ
 40
0.18
  9
$DIMEXO
 40
0.0625
  9
$DIMDLI
 40
0.38
  9
$DIMRND
 40
0.0
  9
$DIMDLE
 40
0.0
  9
$DIMEXE
 40
0.18
  9
$DIMTP
 40
0.0
  9
$DIMTM
 40
0.0
  9
$DIMTXT
 40
0.18
  9
$DIMCEN
 40
0.09
  9
$DIMTSZ
 40
0.0
  9
$DIMTOL
 70
           0
  9
$DIMLIM
 70
           0
  9
$DIMTIH
 70
           1
  9
$DIMTOH
 70
           1
  9
$DIMSE1
 70
           0
  9
$DIMSE2
 70
           0
  9
$DIMTAD
 70
           0
  9
$DIMZIN
 70
           0
  9
$DIMBLK
  1

  9
$DIMASO
 70
           1
  9
$DIMSHO
 70
           1
  9
$DIMPOST
  1

  9
$DIMAPOST
  1

  9
$DIMALT
 70
           0
  9
$DIMALTD
 70
           2
  9
$DIMALTF
 40
25.4
  9
$DIMLFAC
 40
1.0
  9
$DIMTOFL
 70
           0
  9
$DIMTVP
 40
0.0
  9
$DIMTIX
 70
           0
  9
$DIMSOXD
 70
           0
  9
$DIMSAH
 70
           0
  9
$DIMBLK1
  1

  9
$DIMBLK2
  1

  9
$DIMSTYLE
  2
STANDARD
  9
$DIMCLRD
 70
           0
  9
$DIMCLRE
 70
           0
  9
$DIMCLRT
 70
           0
  9
$DIMTFAC
 40
1.0
  9
$DIMGAP
 40
0.09
  9
$DIMJUST
 70
           0
  9
$DIMSD1
 70
           0
  9
$DIMSD2
 70
           0
  9
$DIMTOLJ
 70
           1
  9
$DIMTZIN
 70
           0
  9
$DIMALTZ
 70
           0
  9
$DIMALTTZ
 70
           0
  9
$DIMFIT
 70
           3
  9
$DIMUPT
 70
           0
  9
$DIMUNIT
 70
           2
  9
$DIMDEC
 70
           4
  9
$DIMTDEC
 70
           4
  9
$DIMALTU
 70
           2
  9
$DIMALTTD
 70
           2
  9
$DIMTXSTY
  7
STANDARD
  9
$DIMAUNIT
 70
           0
  9
$LUNITS
 70
           2
  9
$LUPREC
 70
           4
  9
$SKETCHINC
 40
0.1
  9
$FILLETRAD
 40
0.0
  9
$AUNITS
 70
           0
  9
$AUPREC
 70
           0
  9
$MENU
  1
acad
  9
$ELEVATION
 40
0.0
  9
$PELEVATION
 40
0.0
  9
$THICKNESS
 40
0.0
  9
$LIMCHECK
 70
           0
  9
$BLIPMODE
 70
           1
  9
$CHAMFERA
 40
0.0
  9
$CHAMFERB
 40
0.0
  9
$CHAMFERC
 40
0.0
  9
$CHAMFERD
 40
0.0
  9
$SKPOLY
 70
           0
  9
$TDCREATE
 40
0.000000000
  9
$TDUPDATE
 40
0.000000000
  9
$TDINDWG
 40
0.0000000000
  9
$TDUSRTIMER
 40
0.0000000000
  9
$USRTIMER
 70
           1
  9
$ANGBASE
 50
0.0
  9
$ANGDIR
 70
           0
  9
$PDMODE
 70
           0
  9
$PDSIZE
 40
0.0
  9
$PLINEWID
 40
0.0
  9
$COORDS
 70
           0
  9
$SPLFRAME
 70
           0
  9
$SPLINETYPE
 70
           6
  9
$SPLINESEGS
 70
           8
  9
$ATTDIA
 70
           0
  9
$ATTREQ
 70
           1
  9
$HANDLING
 70
           1
  9
$HANDSEED
  5
101
  9
$SURFTAB1
 70
           6
  9
$SURFTAB2
 70
           6
  9
$SURFTYPE
 70
           6
  9
$SURFU
 70
           6
  9
$SURFV
 70
           6
  9
$UCSNAME
  2

  9
$UCSORG
 10
0.0
 20
0.0
 30
0.0
  9
$UCSXDIR
 10
1.0
 20
0.0
 30
0.0
  9
$UCSYDIR
 10
0.0
 20
1.0
 30
0.0
  9
$PUCSNAME
  2

  9
$PUCSORG
 10
0.0
 20
0.0
 30
0.0
  9
$PUCSXDIR
 10
1.0
 20
0.0
 30
0.0
  9
$PUCSYDIR
 10
0.0
 20
1.0
 30
0.0
  9
$USERI1
 70
           0
  9
$USERI2
 70
           0
  9
$USERI3
 70
           0
  9
$USERI4
 70
           0
  9
$USERI5
 70
           0
  9
$USERR1
 40
0.0
  9
$USERR2
 40
0.0
  9
$USERR3
 40
0.0
  9
$USERR4
 40
0.0
  9
$USERR5
 40
0.0
  9
$WORLDVIEW
 70
           1
  9
$SHADEDGE
 70
           3
  9
$SHADEDIF
 70
          70
  9
$TILEMODE
 70
           1
  9
$MAXACTVP
 70
          16
  9
$PINSBASE
 10
0.0
 20
0.0
 30
0.0
  9
$PLIMCHECK
 70
           0
  9
$PEXTMIN
 10
1.000000000000E+20
 20
1.000000000000E+20
 30
1.000000000000E+20
  9
$PEXTMAX
 10
-1.000000000000E+20
 20
-1.000000000000E+20
 30
-1.000000000000E+20
  9
$PLIMMIN
 10
0.0
 20
0.0
  9
$PLIMMAX
 10
12.0
 20
9.0
  9
$UNITMODE
 70
           0
  9
$VISRETAIN
 70
           0
  9
$PLINEGEN
 70
           1
  9
$PSLTSCALE
 70
           0
  9
$TREEDEPTH
 70
        3020
  9
$PICKSTYLE
 70
           1
  9
$CMLSTYLE
  2
STANDARD
  9
$CMLJUST
 70
           0
  9
$CMLSCALE
 40
1.0
  9
$PROXYGRAPHICS
 70
           0
  9
$MEASUREMENT
 70
           0
  0
ENDSEC
  0
SECTION
  2
CLASSES
  0
CLASS
  1
LWPOLYLINE
  2
AcDbPolyline
  3
"AutoCAD"
 90
        0
280
           0
281
           1
  0
CLASS
  1
IMAGE
  2
AcDbRasterImage
  3
ISM
 90
      127
280
           0
281
           1
  0
CLASS
  1
OLE2FRAME
  2
AcDbOle2Frame
  3
""
 90
        0
280
           0
281
           1
  0
CLASS
  1
HATCH
  2
AcDbHatch
  3
"ACAD_SEDONA"
 90
        0
280
           0
281
           1
  0
CLASS
  1
DICTIONARYVAR
  2
AcDbDictionaryVar
  3
"AutoCAD"
 90
        0
280
           0
281
           0
  0
CLASS
  1
RASTERVARIABLES
  2
AcDbRasterVariables
  3
ISM
 90
        0
280
           0
281
           0
  0
CLASS
  1
IMAGEDEF
  2
AcDbRasterImageDef
  3
ISM
 90
        0
280
           0
281
           0
  0
CLASS
  1
IMAGEDEF_REACTOR
  2
AcDbRasterImageDefReactor
  3
ISM
 90
        1
280
           0
281
           0
  0
CLASS
  1
IDBUFFER
  2
AcDbIdBuffer
  3
"Acad"
 90
        0
280
           0
281
           0
  0
CLASS
  1
SPATIAL_FILTER
  2
AcDbSpatialFilter
  3
"Acad"
 90
        0
280
           0
281
           0
  0
CLASS
  1
XRECORD
  2
AcDbXrecord
  3
"<Built In>"
 90
        0
280
           0
281
           0
  0
CLASS
  1
SORTENTSTABLE
  2
AcDbSortentsTable
  3
"AutoCAD"
 90
        0
280
           0
281
           0
  0
CLASS
  1
LAYER_INDEX
  2
AcDbLayerIndex
  3
"Acad"
 90
        0
280
           0
281
           0
  0
CLASS
  1
SPATIAL_INDEX
  2
AcDbSpatialIndex
  3
"Acad"
 90
        0
280
           0
281
           0
  0
CLASS
  1
OBJECT_PTR
  2
CAseDLPNTableRecord
  3
"ASE-LPNTableRecord"
 90
        1
280
           0
281
           0
  0
CLASS
  1
LAYOUT
  2
AcDbLayout
  3
"AutoCAD 2000"
 90
        1
280
           0
281
           0
  0
CLASS
  1
PLOTSETTINGS
  2
AcDbPlotSettings
  3
"AutoCAD 2000"
 90
        1
280
           0
281
           0
  0
CLASS
  1
ACDBDICTIONARYWDFLT
  2
AcDbDictionaryWithDefault
  3
"AutoCAD 2000"
 90
        1
280
           0
281
           0
  0
CLASS
  1
ACDBPLACEHOLDER
  2
AcDbPlaceHolder
  3
"AutoCAD 2000"
 90
        1
280
           0
281
           0
  0
CLASS
  1
VBA_PROJECT
  2
AcDbVbaProject
  3
"acadvba"
 90
        1
280
           0
281
           0
  0
CLASS
  1
WIPEOUT
  2
AcDbWipeout
  3
WipeOut|AutoCAD Express Tool|expresstools@autodesk.com
 90
      127
280
           0
281
           1
  0
CLASS
  1
WIPEOUTVARIABLES
  2
AcDbWipeoutVariables
  3
WipeOut|AutoCAD Express Tool|expresstools@autodesk.com
 90
        0
280
           0
281
           0
  0
CLASS
  1
RTEXT
  2
RText
  3
RText|AutoCAD Express Tool|expresstools@autodesk.com
 90
        0
280
           0
281
           1
  0
CLASS
  1
ARCALIGNEDTEXT
  2
AcDbArcAlignedText
  3
ATEXT|AutoCAD Express Tool|expresstools@autodesk.com
 90
        0
280
           0
281
           1
  0
ENDSEC
  0
SECTION
  2
TABLES
  0
TABLE
  2
VPORT
  5
7
100
AcDbSymbolTable
 70
           1
  0
VPORT
  5
15
100
AcDbSymbolTableRecord
100
AcDbViewportTableRecord
  2
*ACTIVE
 70
           0
 10
0.0
 20
0.0
 11
1.0
 21
1.0
 12
6.591288
 22
4.579184
 13
0.0
 23
0.0
 14
1.0
 24
1.0
 15
0.0
 25
0.0
 16
0.0
 26
0.0
 36
1.0
 17
0.0
 27
0.0
 37
0.0
 40
9.158369
 41
0.688564
 42
50.0
 43
0.0
 44
0.0
 50
0.0
 51
0.0
 71
           0
 72
         100
 73
           1
 74
           1
 75
           0
 76
           0
 77
           0
 78
           0
  0
ENDTAB
  0
TABLE
  2
LTYPE
  5
4
100
AcDbSymbolTable
 70
          10
  0
LTYPE
  5
11
100
AcDbSymbolTableRecord
100
AcDbLinetypeTableRecord
  2
BYBLOCK
 70
          64
  3

 72
          65
 73
           0
 40
0.0
  0
LTYPE
  5
12
100
AcDbSymbolTableRecord
100
AcDbLinetypeTableRecord
  2
BYLAYER
 70
          64
  3

 72
          65
 73
           0
 40
0.0
  0
LTYPE
  5
13
100
AcDbSymbolTableRecord
100
AcDbLinetypeTableRecord
  2
CONTINUOUS
 70
          64
  3
Solid line
 72
          65
 73
           0
 40
0.0
  0
LTYPE
  5
1D
100
AcDbSymbolTableRecord
100
AcDbLinetypeTableRecord
  2
DASHED
 70
          64
  3
Dashed
 72
          65
 73
           2
 40
15.0
 49
12.0
 74
           0
 49
-3.0
 74
           0
  0
LTYPE
  5
1E
100
AcDbSymbolTableRecord
100
AcDbLinetypeTableRecord
  2
DOTTED
 70
          64
  3
Dotted
 72
          65
 73
           2
 40
3.5
 49
0.5
 74
           0
 49
-3.0
 74
           0
  0
LTYPE
  5
1F
100
AcDbSymbolTableRecord
100
AcDbLinetypeTableRecord
  2
DOT_CENTER
 70
          64
  3
Dot_Center
 72
          65
 73
           4
 40
2.0
 49
1.25
 74
           0
 49
-0.25
 74
           0
 49
0.25
 74
           0
 49
-0.25
 74
           0
  0
LTYPE
  5
20
100
AcDbSymbolTableRecord
100
AcDbLinetypeTableRecord
  2
LONG_DASHED
 70
          64
  3
Long_Dashed
 72
          65
 73
           2
 40
2.0
 49
1.5
 74
           0
 49
-0.5
 74
           0
  0
LTYPE
  5
21
100
AcDbSymbolTableRecord
100
AcDbLinetypeTableRecord
  2
DASH_CENTER
 70
          64
  3
Dash_Center
 72
          65
 73
           4
 40
36.0
 49
24.0
 74
           0
 49
-3.0
 74
           0
 49
6.0
 74
           0
 49
-3.0
 74
           0
  0
LTYPE
  5
22
100
AcDbSymbolTableRecord
100
AcDbLinetypeTableRecord
  2
PHANTOM
 70
          64
  3
Phantom
 72
          65
 73
           6
 40
2.5
 49
1.25
 74
           0
 49
-0.25
 74
           0
 49
0.25
 74
           0
 49
-0.25
 74
           0
 49
0.25
 74
           0
 49
-0.25
 74
           0
  0
LTYPE
  5
23
100
AcDbSymbolTableRecord
100
AcDbLinetypeTableRecord
  2
CENTER_DASH_DASH
 70
          64
  3
Center_Dash_Dash
 72
          65
 73
           6
 40
22.0
 49
12.0
 74
           0
 49
-3.0
 74
           0
 49
0.5
 74
           0
 49
-3.0
 74
           0
 49
0.5
 74
           0
 49
-3.0
 74
           0
  0
ENDTAB
  0
TABLE
  2
LAYER
  5
2
100
AcDbSymbolTable
 70
           4
  0
LAYER
  5
14
100
AcDbSymbolTableRecord
100
AcDbLayerTableRecord
  2
0
 70
           0
 62
           7
  6
CONTINUOUS
  0
LAYER
  5
24
100
AcDbSymbolTableRecord
100
AcDbLayerTableRecord
  2
MITTELLINIEN
 70
           0
 62
           7
  6
CONTINUOUS
  0
LAYER
  5
25
100
AcDbSymbolTableRecord
100
AcDbLayerTableRecord
  2
1
 70
           0
 62
           7
  6
CONTINUOUS
  0
LAYER
  5
26
100
AcDbSymbolTableRecord
100
AcDbLayerTableRecord
  2
WANNE
 70
           0
 62
           7
  6
CONTINUOUS
  0
ENDTAB
  0
TABLE
  2
STYLE
  5
3
100
AcDbSymbolTable
 70
           2
  0
STYLE
  5
17
100
AcDbSymbolTableRecord
100
AcDbTextStyleTableRecord
  2
STANDARD
 70
           0
 40
0.0
 41
1.0
 50
0.0
 71
           0
 42
0.0
  3
txt
  4

  0
STYLE
  5
FD
100
AcDbSymbolTableRecord
100
AcDbTextStyleTableRecord
  2
CONVERTER_1
 70
           0
 40
0.0
 41
0.71262
 50
0.0
 71
           0
 42
0.0
  3
txt.shx
  4

  0
ENDTAB
  0
TABLE
  2
VIEW
  5
5
100
AcDbSymbolTable
 70
           0
  0
ENDTAB
  0
TABLE
  2
UCS
  5
6
100
AcDbSymbolTable
 70
           0
  0
ENDTAB
  0
TABLE
  2
APPID
  5
8
100
AcDbSymbolTable
 70
           1
  0
APPID
  5
16
100
AcDbSymbolTableRecord
100
AcDbRegAppTableRecord
  2
ACAD
 70
           0
  0
ENDTAB
  0
TABLE
  2
DIMSTYLE
  5
9
100
AcDbSymbolTable
 70
           1
  0
DIMSTYLE
105
18
100
AcDbSymbolTableRecord
100
AcDbDimStyleTableRecord
  2
STANDARD
 70
           0
  3

  4

  5

  6

  7

 40
1.0
 41
0.18
 42
0.0625
 43
0.38
 44
0.18
 45
0.0
 46
0.0
 47
0.0
 48
0.0
 71
           0
 72
           0
 73
           1
 74
           1
 75
           0
 76
           0
 77
           0
 78
           0
140
0.18
141
0.09
142
0.0
143
25.4
144
1.0
145
0.0
146
1.0
147
0.09
170
           0
171
           2
172
           0
173
           0
174
           0
175
           0
176
           0
177
           0
178
           0
270
           2
271
           4
272
           4
273
           2
274
           2
275
           0
280
           0
281
           0
282
           0
283
           1
284
           0
285
           0
286
           0
287
           0
288
           0
340
17
  0
ENDTAB
  0
TABLE
  2
BLOCK_RECORD
  5
1
100
AcDbSymbolTable
 70
           2
  0
BLOCK_RECORD
  5
A
100
AcDbSymbolTableRecord
100
AcDbBlockTableRecord
  2
*MODEL_SPACE
  0
BLOCK_RECORD
  5
B
100
AcDbSymbolTableRecord
100
AcDbBlockTableRecord
  2
*PAPER_SPACE
  0
BLOCK_RECORD
  5
27
100
AcDbSymbolTableRecord
100
AcDbBlockTableRecord
  2
WANNE_SMART_LINE_47
  0
BLOCK_RECORD
  5
29
100
AcDbSymbolTableRecord
100
AcDbBlockTableRecord
  2
DLX
  0
ENDTAB
  0
ENDSEC
  0
SECTION
  2
BLOCKS
  0
BLOCK
  5
D
100
AcDbEntity
  8
0
100
AcDbBlockBegin
  2
*MODEL_SPACE
 70
           0
 10
0.0
 20
0.0
 30
0.0
  3
*MODEL_SPACE
  1

  0
ENDBLK
  5
E
100
AcDbEntity
  8
0
100
AcDbBlockEnd
  0
BLOCK
  5
F
100
AcDbEntity
 67
           1
  8
0
100
AcDbBlockBegin
  2
*PAPER_SPACE
 70
           0
 10
0.0
 20
0.0
 30
0.0
  3
*PAPER_SPACE
  1

  0
ENDBLK
  5
10
100
AcDbEntity
 67
           1
  8
0
100
AcDbBlockEnd
  0
BLOCK
  5
28
100
AcDbEntity
  8
0
100
AcDbBlockBegin
  2
WANNE_SMART_LINE_47
 70
           0
 10
0.0
 20
0.0
 30
0.0
  3
WANNE_SMART_LINE_47
  1

  0
ARC
  5
45
100
AcDbEntity
  8
1
  6
CONTINUOUS
 62
           7
100
AcDbCircle
 10
1140.418276149232
 20
383.000000669896
 40
255.0
100
AcDbArc
 50
12.239584727184
 51
90.0
  0
ARC
  5
44
100
AcDbEntity
  8
1
  6
CONTINUOUS
 62
           7
100
AcDbCircle
 10
364.297564452367
 20
383.000000669896
 40
255.0
100
AcDbArc
 50
90.0
 51
167.760415272874
  0
SPLINE
  5
43
100
AcDbEntity
  8
1
  6
CONTINUOUS
 62
           7
100
AcDbSpline
210
0.0
220
0.0
230
1.0
 70
           0
 71
           3
 72
          41
 73
          38
 74
          77
 42
0.00000000001
 43
0.00000000001
 44
0.00000000001
 40
-1.7747031480308806
 40
-0.1491110169696981
 40
1.4764811140915257
 40
3.3442545556988819
 40
5.8688042616061473
 40
9.245333245946231
 40
13.458047720742478
 40
18.410297395420386
 40
23.970225639105983
 40
29.980492803509371
 40
36.267452290357326
 40
42.647709713833805
 40
48.934669200681796
 40
54.944936365086051
 40
60.504864608772102
 40
65.457114283449513
 40
69.66982875824489
 40
73.046357742585727
 40
75.570907448493415
 40
77.438680890100358
 40
79.064273021160091
 40
80.932046462766905
 40
83.456596168673968
 40
86.833125153014436
 40
91.045839627811546
 40
95.998089302490484
 40
101.55801754617605
 40
107.56828471057844
 40
113.8552441974264
 40
120.2355016209023
 40
126.52246110775087
 40
132.53272827215466
 40
138.09265651583951
 40
143.0449061905185
 40
147.25762066531448
 40
150.63414964965438
 40
153.15869935556293
 40
155.02647279717115
 40
156.65206492823165
 40
158.27765705929284
 40
159.90324919035405
 10
713.82413669478206
 20
81.929226931896778
 30
0.0
 10
714.60752283567808
 20
83.353606070616593
 30
0.0
 10
716.41232520613289
 20
84.44658249293127
 30
0.0
 10
719.1568694583159
 20
85.498270744374281
 30
0.0
 10
722.85076912372392
 20
86.447502007350636
 30
0.0
 10
727.38795204002008
 20
87.272152046654014
 30
0.0
 10
732.63852605663192
 20
87.940844081537875
 30
0.0
 10
738.44468085356789
 20
88.431774679357773
 30
0.0
 10
744.63121955127008
 20
88.728729794623746
 30
0.0
 10
751.01079346225197
 20
88.822118788428384
 30
0.0
 10
757.39004656294105
 20
88.708916901706402
 30
0.0
 10
763.57563315643893
 20
88.392749393849613
 30
0.0
 10
769.380235244902
 20
87.883788715156811
 30
0.0
 10
774.6287071504521
 20
87.198792950126631
 30
0.0
 10
779.16330703013205
 20
86.360055545194996
 30
0.0
 10
782.85424080817506
 20
85.399356541956081
 30
0.0
 10
785.59550554608791
 20
84.339149502227087
 30
0.0
 10
787.39690470388405
 20
83.24057309139846
 30
0.0
 10
788.1758633052159
 20
81.813767822984232
 30
0.0
 10
787.39247716432305
 20
80.389388684264418
 30
0.0
 10
785.58767479386802
 20
79.296412261949285
 30
0.0
 10
782.84313054168592
 20
78.244724010506275
 30
0.0
 10
779.14923087627608
 20
77.295492747530375
 30
0.0
 10
774.61204795997992
 20
76.470842708226542
 30
0.0
 10
769.36147394336604
 20
75.802150673343135
 30
0.0
 10
763.55531914643211
 20
75.311220075523238
 30
0.0
 10
757.36878044872992
 20
75.01426496025681
 30
0.0
 10
750.98920653774803
 20
74.920875966452627
 30
0.0
 10
744.60995343706008
 20
75.034077853174153
 30
0.0
 10
738.42436684355994
 20
75.350245361031853
 30
0.0
 10
732.61976475510005
 20
75.85920603972329
 30
0.0
 10
727.37129284954904
 20
76.544201804753925
 30
0.0
 10
722.83669296986704
 20
77.382939209686469
 30
0.0
 10
719.14575919182494
 20
78.34363821292493
 30
0.0
 10
716.404494453913
 20
79.403845252653923
 30
0.0
 10
714.60309529611391
 20
80.502421663482551
 30
0.0
 10
713.82413669478206
 20
81.929226931896778
 30
0.0
 10
714.60752283567808
 20
83.353606070616593
 30
0.0
 11
714.18867522352525
 21
82.592043196437317
 31
0.0
 11
714.69467761808585
 21
83.279408552420506
 31
0.0
 11
715.37498957746197
 21
83.818378872011579
 31
0.0
 11
716.44652824146294
 21
84.402012686719488
 31
0.0
 11
717.58647297612436
 21
84.896506889003888
 31
0.0
 11
719.17513340180892
 21
85.453410359463533
 31
0.0
 11
720.80032171447965
 21
85.92059306010168
 31
0.0
 11
722.85954109339355
 21
86.410538238800683
 31
0.0
 11
724.93630441164714
 21
86.826555880399781
 31
0.0
 11
727.39342182479811
 21
87.239507615646176
 31
0.0
 11
729.86147880750514
 21
87.58717048887695
 31
0.0
 11
732.64178496254226
 21
87.911403487986902
 31
0.0
 11
735.42860892940053
 21
88.176755299994909
 31
0.0
 11
738.44658027265632
 21
88.404304023407803
 31
0.0
 11
741.46835045408932
 21
88.576911434920703
 31
0.0
 11
744.63207557609871
 21
88.702362849101704
 31
0.0
 11
747.79751274776572
 21
88.775080372238676
 31
0.0
 11
751.01075306560699
 21
88.796104727714933
 31
0.0
 11
754.22391259015853
 21
88.76510096176429
 31
0.0
 11
757.38910865317632
 21
88.682552741944789
 31
0.0
 11
760.55242889666431
 21
88.547276202602035
 31
0.0
 11
763.57364842959976
 21
88.365284769501585
 31
0.0
 11
766.59089850885698
 21
88.128364087705052
 31
0.0
 11
769.3768849196706
 21
87.854358384931004
 31
0.0
 11
772.15617068002098
 21
87.521492021705342
 31
0.0
 11
774.62313600670564
 21
87.166165664326101
 31
0.0
 11
777.07895904589782
 21
86.745584735345858
 31
0.0
 11
779.15442030265081
 21
86.323119198435109
 31
0.0
 11
781.21210810444131
 21
85.82678096800457
 31
0.0
 11
782.83583762775447
 21
85.354553096589882
 31
0.0
 11
784.42276079022668
 21
84.79271833444281
 31
0.0
 11
785.56116425316645
 21
84.294686136947135
 31
0.0
 11
786.6308851302631
 21
83.707727208891541
 31
0.0
 11
787.3095199030812
 21
83.166646611760029
 31
0.0
 11
787.81338507429314
 21
82.477713055351714
 31
0.0
 11
787.99410911529981
 21
81.814050064941028
 31
0.0
 11
787.81132477647429
 21
81.150951558443921
 31
0.0
 11
787.30532238191495
 21
80.463586202460533
 31
0.0
 11
786.62501042253916
 21
79.92461588286929
 31
0.0
 11
785.55347175853808
 21
79.340982068161154
 31
0.0
 11
784.41352702387712
 21
78.846487865876711
 31
0.0
 11
782.82486659819267
 21
78.289584395417094
 31
0.0
 11
781.19967828552126
 21
77.822401694779103
 31
0.0
 11
779.14045890660668
 21
77.332456516080228
 31
0.0
 11
777.06369558835286
 21
76.916438874481031
 31
0.0
 11
774.60657817520166
 21
76.503487139234466
 31
0.0
 11
772.1385211924935
 21
76.155824266003776
 31
0.0
 11
769.35821503745603
 21
75.831591266894037
 31
0.0
 11
766.57139107059811
 21
75.566239454886073
 31
0.0
 11
763.55341972734323
 21
75.338690731473164
 31
0.0
 11
760.53164954591102
 21
75.166083319960094
 31
0.0
 11
757.36792442390117
 21
75.040631905778966
 31
0.0
 11
754.20248725223405
 21
74.967914382642093
 31
0.0
 11
750.98924693439312
 21
74.946890027165949
 31
0.0
 11
747.77608740984215
 21
74.977893793116493
 31
0.0
 11
744.61089134682447
 21
75.060442012935965
 31
0.0
 11
741.44757110333535
 21
75.195718552279004
 31
0.0
 11
738.42635157039956
 21
75.377709985379596
 31
0.0
 11
735.40910149114325
 21
75.614630667175703
 31
0.0
 11
732.62311508033122
 21
75.88863636994931
 31
0.0
 11
729.84382931998118
 21
76.221502733174901
 31
0.0
 11
727.37686399329527
 21
76.576829090554497
 31
0.0
 11
724.92104095410207
 21
76.997410019535238
 31
0.0
 11
722.84557969734851
 21
77.419875556446229
 31
0.0
 11
720.78789189555789
 21
77.916213786876739
 31
0.0
 11
719.16416237224553
 21
78.388441658291171
 31
0.0
 11
717.57723920977423
 21
78.95027642043803
 31
0.0
 11
716.43883574683412
 21
79.448308617933819
 31
0.0
 11
715.36911486973634
 21
80.035267545989385
 31
0.0
 11
714.6904800969171
 21
80.576348143120953
 31
0.0
 11
714.1866149257047
 21
81.265281699529368
 31
0.0
 11
714.01267952012483
 21
81.941288016144867
 31
0.0
 11
714.21582976522996
 21
82.641416501256543
 31
0.0
 11
714.41167630045413
 21
82.997511285936611
 31
0.0
 11
714.21582976523007
 21
82.641416501256685
 31
0.0
 11
714.01319459457989
 21
82.27297839037189
 31
0.0
 11
714.18867522352537
 21
82.592043196437302
 31
0.0
  0
CIRCLE
  5
42
100
AcDbEntity
  8
WANNE
  6
CONTINUOUS
 62
           7
100
AcDbCircle
 10
751.000000000006
 20
368.0
 40
26.0
  0
CIRCLE
  5
41
100
AcDbEntity
  8
WANNE
  6
CONTINUOUS
 62
           7
100
AcDbCircle
 10
751.000000000006
 20
368.0
 40
45.0
  0
ARC
  5
40
100
AcDbEntity
  8
1
  6
CONTINUOUS
 62
           7
100
AcDbCircle
 10
1289.000000000001
 20
381.711774084698
 40
384.999999999998
100
AcDbArc
 50
-54.060868195917
 51
-2.083942334608
  0
ARC
  5
3F
100
AcDbEntity
  8
1
  6
CONTINUOUS
 62
           7
100
AcDbCircle
 10
1288.999999999999
 20
381.711774084699
 40
384.999999999999
100
AcDbArc
 50
-2.083942334608
 51
43.711214219916
  0
ARC
  5
3E
100
AcDbEntity
  8
1
  6
CONTINUOUS
 62
           7
100
AcDbCircle
 10
1384.978599237558
 20
472.939611784891
 40
252.583277155207
100
AcDbArc
 50
43.797665819913
 51
86.31264685138
  0
ARC
  5
3D
100
AcDbEntity
  8
1
  6
CONTINUOUS
 62
           7
100
AcDbCircle
 10
410.000000000054
 20
381.71177408473
 40
385.000000000057
100
AcDbArc
 50
-179.999999999995
 51
-125.939131804086
  0
ARC
  5
3C
100
AcDbEntity
  8
1
  6
CONTINUOUS
 62
           7
100
AcDbCircle
 10
410.000000000058
 20
381.711774084668
 40
385.00000000006
100
AcDbArc
 50
136.288785780086
 51
179.999999999995
  0
ARC
  5
3B
100
AcDbEntity
  8
1
  6
CONTINUOUS
 62
           7
100
AcDbCircle
 10
313.851132334563
 20
473.316373899853
 40
252.1996642051
100
AcDbArc
 50
93.665895345549
 51
136.237342679433
  0
ARC
  5
3A
100
AcDbEntity
  8
1
  6
CONTINUOUS
 62
           7
100
AcDbCircle
 10
388.729305955981
 20
377.70000000001
 40
280.000000000004
100
AcDbArc
 50
167.760415272874
 51
-88.468660303259
  0
ARC
  5
39
100
AcDbEntity
  8
1
  6
CONTINUOUS
 62
           7
100
AcDbCircle
 10
1115.986534645644
 20
377.699999999989
 40
279.999999999983
100
AcDbArc
 50
-88.468660303281
 51
12.239584727184
  0
LINE
  5
38
100
AcDbEntity
  8
1
  6
CONTINUOUS
 62
           7
100
AcDbLine
 10
0.0
 20
750.0
 11
1700.0
 21
750.0
  0
LINE
  5
37
100
AcDbEntity
  8
1
  6
CONTINUOUS
 62
           7
100
AcDbLine
 10
0.0
 20
750.0
 11
0.0
 21
0.0
  0
LINE
  5
36
100
AcDbEntity
  8
1
  6
CONTINUOUS
 62
           7
100
AcDbLine
 10
1700.0
 20
750.0
 11
1700.0
 21
0.0
  0
LINE
  5
35
100
AcDbEntity
  8
1
  6
CONTINUOUS
 62
           7
100
AcDbLine
 10
0.0
 20
0.0
 11
1700.0
 21
0.0
  0
LINE
  5
34
100
AcDbEntity
  8
MITTELLINIEN
  6
DOT_CENTER
 62
           3
100
AcDbLine
 10
816.678019000013
 20
368.0
 11
687.010045000002
 21
368.0
  0
LINE
  5
33
100
AcDbEntity
  8
MITTELLINIEN
  6
DOT_CENTER
 62
           3
100
AcDbLine
 10
751.0
 20
302.321980999999
 11
751.0
 21
431.989954999999
  0
LINE
  5
32
100
AcDbEntity
  8
1
  6
CONTINUOUS
 62
           7
100
AcDbLine
 10
297.725914784382
 20
725.0000006699
 11
1401.222744447519
 21
725.0000006699
  0
LINE
  5
31
100
AcDbEntity
  8
1
  6
CONTINUOUS
 62
           7
100
AcDbLine
 10
184.033697430415
 20
70.0
 11
1514.966302569585
 21
70.0
  0
LINE
  5
30
100
AcDbEntity
  8
1
  6
CONTINUOUS
 62
           7
100
AcDbLine
 10
1140.418276149232
 20
638.000000669896
 11
364.297564452367
 21
638.000000669896
  0
LINE
  5
2F
100
AcDbEntity
  8
1
  6
CONTINUOUS
 62
           7
100
AcDbLine
 10
396.211952546337
 20
97.799999999996
 11
1123.469181235893
 21
97.799999999996
  0
ENDBLK
  5
46
100
AcDbEntity
  8
0
100
AcDbBlockEnd
  0
BLOCK
  5
2A
100
AcDbEntity
  8
0
100
AcDbBlockBegin
  2
DLX
 70
           0
 10
0.0
 20
0.0
 30
0.0
  3
DLX
  1

  0
CIRCLE
  5
FA
100
AcDbEntity
  8
1
  6
CONTINUOUS
 62
           3
100
AcDbCircle
 10
472.735875237937
 20
575.878787878755
 40
5.972862778754
  0
CIRCLE
  5
F9
100
AcDbEntity
  8
1
  6
CONTINUOUS
 62
           3
100
AcDbCircle
 10
472.735875237937
 20
575.878787878755
 40
5.530127989696
  0
ARC
  5
F8
100
AcDbEntity
  8
1
  6
CONTINUOUS
 62
           3
100
AcDbCircle
 10
472.942694069316
 20
577.303919921381
 40
2.009798008862
100
AcDbArc
 50
-55.929988464575
 51
86.29788871826
  0
ARC
  5
F7
100
AcDbEntity
  8
1
  6
CONTINUOUS
 62
           3
100
AcDbCircle
 10
472.864376243302
 20
577.264025930551
 40
1.257687287767
100
AcDbArc
 50
-74.800419047057
 51
80.931395238788
  0
ARC
  5
F6
100
AcDbEntity
  8
1
  6
CONTINUOUS
 62
           3
100
AcDbCircle
 10
472.789193605106
 20
574.053039389822
 40
1.155889798232
100
AcDbArc
 50
0.985058170485
 51
82.918254632929
  0
ARC
  5
F5
100
AcDbEntity
  8
1
  6
CONTINUOUS
 62
           3
100
AcDbCircle
 10
473.514586791596
 20
574.362233682226
 40
1.391870091328
100
AcDbArc
 50
-1.298612665727
 51
66.544866494048
  0
LINE
  5
F4
100
AcDbEntity
  8
1
  6
CONTINUOUS
 62
           3
100
AcDbLine
 10
365.328223469318
 20
571.979895810782
 11
365.032820381937
 21
572.978447872363
  0
LINE
  5
F3
100
AcDbEntity
  8
1
  6
CONTINUOUS
 62
           3
100
AcDbLine
 10
365.764903150884
 20
573.762204858332
 11
365.032820381937
 21
572.978447872363
  0
LINE
  5
F2
100
AcDbEntity
  8
1
  6
CONTINUOUS
 62
           3
100
AcDbLine
 10
400.795927119554
 20
543.237708784527
 11
404.180334610435
 21
557.051175145079
  0
LINE
  5
F1
100
AcDbEntity
  8
1
  6
CONTINUOUS
 62
           3
100
AcDbLine
 10
396.607772964315
 20
543.237708784527
 11
399.992180455331
 21
557.051175145079
  0
LINE
  5
F0
100
AcDbEntity
  8
1
  6
CONTINUOUS
 62
           3
100
AcDbLine
 10
396.607772964315
 20
543.237708784527
 11
400.795927119554
 21
543.237708784527
  0
LINE
  5
EF
100
AcDbEntity
  8
1
  6
CONTINUOUS
 62
           3
100
AcDbLine
 10
395.523798905146
 20
538.813466360341
 11
399.711953060334
 21
538.813466360341
  0
LINE
  5
EE
100
AcDbEntity
  8
1
  6
CONTINUOUS
 62
           3
100
AcDbLine
 10
396.327545569439
 20
525.0
 11
402.609776802336
 21
525.0
  0
LINE
  5
ED
100
AcDbEntity
  8
1
  6
CONTINUOUS
 62
           3
100
AcDbLine
 10
399.992180455331
 20
557.051175145079
 11
393.709949222466
 21
557.051175145079
  0
LINE
  5
EC
100
AcDbEntity
  8
1
  6
CONTINUOUS
 62
           3
100
AcDbLine
 10
431.403336619289
 20
557.051175145079
 11
423.55054757827
 21
525.0
  0
LINE
  5
EB
100
AcDbEntity
  8
1
  6
CONTINUOUS
 62
           3
100
AcDbLine
 10
424.037131327292
 20
552.626932720839
 11
418.352290404568
 21
529.424242424182
  0
LINE
  5
EA
100
AcDbEntity
  8
1
  6
CONTINUOUS
 62
           3
100
AcDbLine
 10
419.848977172042
 20
552.626932720839
 11
424.037131327292
 21
552.626932720839
  0
LINE
  5
E9
100
AcDbEntity
  8
1
  6
CONTINUOUS
 62
           3
100
AcDbLine
 10
431.403336619289
 20
557.051175145079
 11
414.650719998459
 21
557.051175145079
  0
LINE
  5
E8
100
AcDbEntity
  8
1
  6
CONTINUOUS
 62
           3
100
AcDbLine
 10
414.164136249467
 20
529.424242424182
 11
419.848977172042
 21
552.626932720839
  0
LINE
  5
E7
100
AcDbEntity
  8
1
  6
CONTINUOUS
 62
           3
100
AcDbLine
 10
414.650719998459
 20
557.051175145079
 11
406.797930957462
 21
525.0
  0
LINE
  5
E6
100
AcDbEntity
  8
1
  6
CONTINUOUS
 62
           3
100
AcDbLine
 10
418.352290404568
 20
529.424242424182
 11
414.164136249467
 21
529.424242424182
  0
LINE
  5
E5
100
AcDbEntity
  8
1
  6
CONTINUOUS
 62
           3
100
AcDbLine
 10
406.797930957462
 20
525.0
 11
423.55054757827
 21
525.0
  0
LINE
  5
E4
100
AcDbEntity
  8
1
  6
CONTINUOUS
 62
           3
100
AcDbLine
 10
410.462565843351
 20
557.051175145079
 11
404.180334610435
 21
557.051175145079
  0
LINE
  5
E3
100
AcDbEntity
  8
1
  6
CONTINUOUS
 62
           3
100
AcDbLine
 10
393.709949222466
 20
557.051175145079
 11
385.857160181473
 21
525.0
  0
LINE
  5
E2
100
AcDbEntity
  8
1
  6
CONTINUOUS
 62
           3
100
AcDbLine
 10
392.139391414261
 20
525.0
 11
395.523798905146
 21
538.813466360341
  0
LINE
  5
E1
100
AcDbEntity
  8
1
  6
CONTINUOUS
 62
           3
100
AcDbLine
 10
396.327545569439
 20
525.0
 11
399.711953060334
 21
538.813466360341
  0
LINE
  5
E0
100
AcDbEntity
  8
1
  6
CONTINUOUS
 62
           3
100
AcDbLine
 10
402.609776802336
 20
525.0
 11
410.462565843351
 21
557.051175145079
  0
LINE
  5
DF
100
AcDbEntity
  8
1
  6
CONTINUOUS
 62
           3
100
AcDbLine
 10
385.857160181473
 20
525.0
 11
392.139391414261
 21
525.0
  0
LINE
  5
DE
100
AcDbEntity
  8
1
  6
CONTINUOUS
 62
           3
100
AcDbLine
 10
380.529628686516
 20
545.990569084413
 11
386.811859919322
 21
545.990569084413
  0
LINE
  5
DD
100
AcDbEntity
  8
1
  6
CONTINUOUS
 62
           3
100
AcDbLine
 10
382.15558977531
 20
552.626932720839
 11
380.529628686516
 21
545.990569084413
  0
LINE
  5
DC
100
AcDbEntity
  8
1
  6
CONTINUOUS
 62
           3
100
AcDbLine
 10
377.967435620118
 20
552.626932720839
 11
382.15558977531
 21
552.626932720839
  0
LINE
  5
DB
100
AcDbEntity
  8
1
  6
CONTINUOUS
 62
           3
100
AcDbLine
 10
372.282594697488
 20
529.424242424182
 11
377.967435620118
 21
552.626932720839
  0
LINE
  5
DA
100
AcDbEntity
  8
1
  6
CONTINUOUS
 62
           3
100
AcDbLine
 10
376.470748852691
 20
529.424242424182
 11
372.282594697488
 21
529.424242424182
  0
LINE
  5
D9
100
AcDbEntity
  8
1
  6
CONTINUOUS
 62
           3
100
AcDbLine
 10
378.096709941478
 20
536.060606060608
 11
376.470748852691
 21
529.424242424182
  0
LINE
  5
D8
100
AcDbEntity
  8
1
  6
CONTINUOUS
 62
           3
100
AcDbLine
 10
384.378941174266
 20
536.060606060608
 11
378.096709941478
 21
536.060606060608
  0
LINE
  5
D7
100
AcDbEntity
  8
1
  6
CONTINUOUS
 62
           3
100
AcDbLine
 10
381.669006026292
 20
525.0
 11
384.378941174266
 21
536.060606060608
  0
LINE
  5
D6
100
AcDbEntity
  8
1
  6
CONTINUOUS
 62
           3
100
AcDbLine
 10
364.916389405538
 20
525.0
 11
381.669006026292
 21
525.0
  0
LINE
  5
D5
100
AcDbEntity
  8
1
  6
CONTINUOUS
 62
           3
100
AcDbLine
 10
372.769178446531
 20
557.051175145079
 11
364.916389405538
 21
525.0
  0
LINE
  5
D4
100
AcDbEntity
  8
1
  6
CONTINUOUS
 62
           3
100
AcDbLine
 10
389.521795067252
 20
557.051175145079
 11
372.769178446531
 21
557.051175145079
  0
LINE
  5
D3
100
AcDbEntity
  8
1
  6
CONTINUOUS
 62
           3
100
AcDbLine
 10
386.811859919322
 20
545.990569084413
 11
389.521795067252
 21
557.051175145079
  0
LINE
  5
D2
100
AcDbEntity
  8
1
  6
CONTINUOUS
 62
           3
100
AcDbLine
 10
367.497050232156
 20
552.626932720839
 11
368.581024291314
 21
557.051175145079
  0
LINE
  5
D1
100
AcDbEntity
  8
1
  6
CONTINUOUS
 62
           3
100
AcDbLine
 10
357.026664844176
 20
552.626932720839
 11
367.497050232156
 21
552.626932720839
  0
LINE
  5
D0
100
AcDbEntity
  8
1
  6
CONTINUOUS
 62
           3
100
AcDbLine
 10
354.593746099163
 20
542.696969696953
 11
357.026664844176
 21
552.626932720839
  0
LINE
  5
CF
100
AcDbEntity
  8
1
  6
CONTINUOUS
 62
           3
100
AcDbLine
 10
365.064131487226
 20
542.696969696953
 11
354.593746099163
 21
542.696969696953
  0
LINE
  5
CE
100
AcDbEntity
  8
1
  6
CONTINUOUS
 62
           3
100
AcDbLine
 10
360.728235250302
 20
525.0
 11
365.064131487226
 21
542.696969696953
  0
LINE
  5
CD
100
AcDbEntity
  8
1
  6
CONTINUOUS
 62
           3
100
AcDbLine
 10
343.97561862948
 20
525.0
 11
360.728235250302
 21
525.0
  0
LINE
  5
CC
100
AcDbEntity
  8
1
  6
CONTINUOUS
 62
           3
100
AcDbLine
 10
345.059592688787
 20
529.424242424182
 11
343.97561862948
 21
525.0
  0
LINE
  5
CB
100
AcDbEntity
  8
1
  6
CONTINUOUS
 62
           3
100
AcDbLine
 10
355.529978076698
 20
529.424242424182
 11
345.059592688787
 21
529.424242424182
  0
LINE
  5
CA
100
AcDbEntity
  8
1
  6
CONTINUOUS
 62
           3
100
AcDbLine
 10
357.697926195117
 20
538.272727272797
 11
355.529978076698
 21
529.424242424182
  0
LINE
  5
C9
100
AcDbEntity
  8
1
  6
CONTINUOUS
 62
           3
100
AcDbLine
 10
347.227540807151
 20
538.272727272797
 11
357.697926195117
 21
538.272727272797
  0
LINE
  5
C8
100
AcDbEntity
  8
1
  6
CONTINUOUS
 62
           3
100
AcDbLine
 10
351.828407670542
 20
557.051175145079
 11
347.227540807151
 21
538.272727272797
  0
LINE
  5
C7
100
AcDbEntity
  8
1
  6
CONTINUOUS
 62
           3
100
AcDbLine
 10
368.581024291314
 20
557.051175145079
 11
351.828407670542
 21
557.051175145079
  0
LINE
  5
C6
100
AcDbEntity
  8
1
  6
CONTINUOUS
 62
           3
100
AcDbLine
 10
347.640253515379
 20
557.051175145079
 11
339.787464474364
 21
525.0
  0
LINE
  5
C5
100
AcDbEntity
  8
1
  6
CONTINUOUS
 62
           3
100
AcDbLine
 10
341.358022282573
 20
557.051175145079
 11
347.640253515379
 21
557.051175145079
  0
LINE
  5
C4
100
AcDbEntity
  8
1
  6
CONTINUOUS
 62
           3
100
AcDbLine
 10
339.787464474364
 20
525.0
 11
321.987809314774
 21
525.0
  0
LINE
  5
C3
100
AcDbEntity
  8
1
  6
CONTINUOUS
 62
           3
100
AcDbLine
 10
334.589207300767
 20
529.424242424182
 11
341.358022282573
 21
557.051175145079
  0
LINE
  5
C2
100
AcDbEntity
  8
1
  6
CONTINUOUS
 62
           3
100
AcDbLine
 10
329.354014606783
 20
529.424242424182
 11
334.589207300767
 21
529.424242424182
  0
LINE
  5
C1
100
AcDbEntity
  8
1
  6
CONTINUOUS
 62
           3
100
AcDbLine
 10
336.122829588578
 20
557.051175145079
 11
329.354014606783
 21
529.424242424182
  0
LINE
  5
C0
100
AcDbEntity
  8
1
  6
CONTINUOUS
 62
           3
100
AcDbLine
 10
329.840598355768
 20
557.051175145079
 11
336.122829588578
 21
557.051175145079
  0
LINE
  5
BF
100
AcDbEntity
  8
1
  6
CONTINUOUS
 62
           3
100
AcDbLine
 10
321.987809314774
 20
525.0
 11
329.840598355768
 21
557.051175145079
  0
LINE
  5
BE
100
AcDbEntity
  8
1
  6
CONTINUOUS
 62
           3
100
AcDbLine
 10
317.799655159648
 20
525.0
 11
300.0
 21
525.0
  0
LINE
  5
BD
100
AcDbEntity
  8
1
  6
CONTINUOUS
 62
           3
100
AcDbLine
 10
328.362379348568
 20
568.111781205662
 11
317.799655159648
 21
525.0
  0
LINE
  5
BC
100
AcDbEntity
  8
1
  6
CONTINUOUS
 62
           3
100
AcDbLine
 10
304.389052271275
 20
568.111781205662
 11
328.362379348568
 21
568.111781205662
  0
LINE
  5
BB
100
AcDbEntity
  8
1
  6
CONTINUOUS
 62
           3
100
AcDbLine
 10
303.03408469729
 20
562.581478175405
 11
304.389052271275
 21
568.111781205662
  0
LINE
  5
BA
100
AcDbEntity
  8
1
  6
CONTINUOUS
 62
           3
100
AcDbLine
 10
320.725180541824
 20
562.581478175405
 11
303.03408469729
 21
562.581478175405
  0
LINE
  5
B9
100
AcDbEntity
  8
1
  6
CONTINUOUS
 62
           3
100
AcDbLine
 10
312.601397985942
 20
529.424242424182
 11
320.725180541824
 21
562.581478175405
  0
LINE
  5
B8
100
AcDbEntity
  8
1
  6
CONTINUOUS
 62
           3
100
AcDbLine
 10
307.366205292063
 20
529.424242424182
 11
312.601397985942
 21
529.424242424182
  0
LINE
  5
B7
100
AcDbEntity
  8
1
  6
CONTINUOUS
 62
           3
100
AcDbLine
 10
314.135020273752
 20
557.051175145079
 11
307.366205292063
 21
529.424242424182
  0
LINE
  5
B6
100
AcDbEntity
  8
1
  6
CONTINUOUS
 62
           3
100
AcDbLine
 10
307.852789041055
 20
557.051175145079
 11
314.135020273752
 21
557.051175145079
  0
LINE
  5
B5
100
AcDbEntity
  8
1
  6
CONTINUOUS
 62
           3
100
AcDbLine
 10
300.0
 20
525.0
 11
307.852789041055
 21
557.051175145079
  0
LINE
  5
B4
100
AcDbEntity
  8
1
  6
CONTINUOUS
 62
           3
100
AcDbLine
 10
435.119681233515
 20
531.19393939391
 11
444.164841739606
 21
568.111781205662
  0
LINE
  5
B3
100
AcDbEntity
  8
1
  6
CONTINUOUS
 62
           3
100
AcDbLine
 10
444.164841739606
 20
568.111781205662
 11
438.301425922338
 21
568.111781205662
  0
LINE
  5
B2
100
AcDbEntity
  8
1
  6
CONTINUOUS
 62
           3
100
AcDbLine
 10
438.301425922338
 20
568.111781205662
 11
427.738701733397
 21
525.0
  0
LINE
  5
B1
100
AcDbEntity
  8
1
  6
CONTINUOUS
 62
           3
100
AcDbLine
 10
445.643060746967
 20
557.051175145079
 11
439.958219824279
 21
533.848484848477
  0
LINE
  5
B0
100
AcDbEntity
  8
1
  6
CONTINUOUS
 62
           3
100
AcDbLine
 10
439.958219824279
 20
533.848484848477
 11
455.6637979062
 21
533.848484848477
  0
LINE
  5
AF
100
AcDbEntity
  8
1
  6
CONTINUOUS
 62
           3
100
AcDbLine
 10
455.6637979062
 20
533.848484848477
 11
461.348638828808
 21
557.051175145079
  0
LINE
  5
AE
100
AcDbEntity
  8
1
  6
CONTINUOUS
 62
           3
100
AcDbLine
 10
461.348638828808
 20
557.051175145079
 11
456.113446134885
 21
557.051175145079
  0
LINE
  5
AD
100
AcDbEntity
  8
1
  6
CONTINUOUS
 62
           3
100
AcDbLine
 10
456.113446134885
 20
557.051175145079
 11
451.51257927149
 21
538.272727272797
  0
LINE
  5
AC
100
AcDbEntity
  8
1
  6
CONTINUOUS
 62
           3
100
AcDbLine
 10
451.51257927149
 20
538.272727272797
 11
446.277386577538
 21
538.272727272797
  0
LINE
  5
AB
100
AcDbEntity
  8
1
  6
CONTINUOUS
 62
           3
100
AcDbLine
 10
446.277386577538
 20
538.272727272797
 11
450.878253440889
 21
557.051175145079
  0
LINE
  5
AA
100
AcDbEntity
  8
1
  6
CONTINUOUS
 62
           3
100
AcDbLine
 10
450.878253440889
 20
557.051175145079
 11
445.643060746967
 21
557.051175145079
  0
LINE
  5
A9
100
AcDbEntity
  8
1
  6
CONTINUOUS
 62
           3
100
AcDbLine
 10
467.906977584949
 20
557.051175145079
 11
463.861531321934
 21
557.051175145079
  0
LINE
  5
A8
100
AcDbEntity
  8
1
  6
CONTINUOUS
 62
           3
100
AcDbLine
 10
463.861531321934
 20
557.051175145079
 11
467.983826844131
 21
546.415301218661
  0
LINE
  5
A7
100
AcDbEntity
  8
1
  6
CONTINUOUS
 62
           3
100
AcDbLine
 10
467.983826844131
 20
546.415301218661
 11
458.176690399341
 21
533.848484848477
  0
LINE
  5
A6
100
AcDbEntity
  8
1
  6
CONTINUOUS
 62
           3
100
AcDbLine
 10
458.176690399341
 20
533.848484848477
 11
462.222136662338
 21
533.848484848477
  0
LINE
  5
A5
100
AcDbEntity
  8
1
  6
CONTINUOUS
 62
           3
100
AcDbLine
 10
462.222136662338
 20
533.848484848477
 11
469.32626924244
 21
542.951685370502
  0
LINE
  5
A4
100
AcDbEntity
  8
1
  6
CONTINUOUS
 62
           3
100
AcDbLine
 10
469.32626924244
 20
542.951685370502
 11
472.854524937124
 21
533.848484848477
  0
LINE
  5
A3
100
AcDbEntity
  8
1
  6
CONTINUOUS
 62
           3
100
AcDbLine
 10
472.854524937124
 20
533.848484848477
 11
476.899971200172
 21
533.848484848477
  0
LINE
  5
A2
100
AcDbEntity
  8
1
  6
CONTINUOUS
 62
           3
100
AcDbLine
 10
476.899971200172
 20
533.848484848477
 11
472.029273107168
 21
546.415301218603
  0
LINE
  5
A1
100
AcDbEntity
  8
1
  6
CONTINUOUS
 62
           3
100
AcDbLine
 10
472.029273107168
 20
546.415301218603
 11
480.32950315225
 21
557.051175145079
  0
LINE
  5
A0
100
AcDbEntity
  8
1
  6
CONTINUOUS
 62
           3
100
AcDbLine
 10
480.32950315225
 20
557.051175145079
 11
476.284056889192
 21
557.051175145079
  0
LINE
  5
9F
100
AcDbEntity
  8
1
  6
CONTINUOUS
 62
           3
100
AcDbLine
 10
476.284056889192
 20
557.051175145079
 11
470.686830708906
 21
549.878917066824
  0
LINE
  5
9E
100
AcDbEntity
  8
1
  6
CONTINUOUS
 62
           3
100
AcDbLine
 10
470.686830708906
 20
549.878917066824
 11
467.906977584949
 21
557.051175145079
  0
LINE
  5
9D
100
AcDbEntity
  8
1
  6
CONTINUOUS
 62
           3
100
AcDbLine
 10
477.928830785688
 20
531.19393939391
 11
480.329503152207
 21
525.0
  0
LINE
  5
9C
100
AcDbEntity
  8
1
  6
CONTINUOUS
 62
           3
100
AcDbLine
 10
477.928830785688
 20
531.19393939391
 11
435.119681233515
 21
531.19393939391
  0
LINE
  5
9B
100
AcDbEntity
  8
1
  6
CONTINUOUS
 62
           3
100
AcDbLine
 10
480.329503152207
 20
525.0
 11
427.738701733397
 21
525.0
  0
LINE
  5
9A
100
AcDbEntity
  8
1
  6
CONTINUOUS
 62
           3
100
AcDbLine
 10
336.738687658966
 20
568.111781205662
 11
339.990609836448
 21
581.38450847832
  0
LINE
  5
99
100
AcDbEntity
  8
1
  6
CONTINUOUS
 62
           3
100
AcDbLine
 10
339.990609836448
 20
581.38450847832
 11
352.555072302166
 21
581.38450847832
  0
LINE
  5
98
100
AcDbEntity
  8
1
  6
CONTINUOUS
 62
           3
100
AcDbLine
 10
352.555072302166
 20
581.38450847832
 11
349.303150124491
 21
568.111781205662
  0
LINE
  5
97
100
AcDbEntity
  8
1
  6
CONTINUOUS
 62
           3
100
AcDbLine
 10
349.303150124491
 20
568.111781205662
 11
336.738687658966
 21
568.111781205662
  0
LINE
  5
96
100
AcDbEntity
  8
1
  6
CONTINUOUS
 62
           3
100
AcDbLine
 10
347.751060076487
 20
570.323902417793
 11
339.374751766132
 21
570.323902417793
  0
LINE
  5
95
100
AcDbEntity
  8
1
  6
CONTINUOUS
 62
           3
100
AcDbLine
 10
349.919008194964
 20
579.172387266269
 11
347.751060076487
 21
570.323902417793
  0
LINE
  5
94
100
AcDbEntity
  8
1
  6
CONTINUOUS
 62
           3
100
AcDbLine
 10
341.542699884474
 20
579.172387266269
 11
349.919008194964
 21
579.172387266269
  0
LINE
  5
93
100
AcDbEntity
  8
1
  6
CONTINUOUS
 62
           3
100
AcDbLine
 10
339.374751766132
 20
570.323902417793
 11
341.542699884474
 21
579.172387266269
  0
LINE
  5
92
100
AcDbEntity
  8
1
  6
CONTINUOUS
 62
           3
100
AcDbLine
 10
355.067964795158
 20
581.38450847832
 11
351.816042617622
 21
568.111781205662
  0
LINE
  5
91
100
AcDbEntity
  8
1
  6
CONTINUOUS
 62
           3
100
AcDbLine
 10
355.067964795158
 20
581.38450847832
 11
367.632427260738
 21
581.38450847832
  0
LINE
  5
90
100
AcDbEntity
  8
1
  6
CONTINUOUS
 62
           3
100
AcDbLine
 10
367.632427260738
 20
581.38450847832
 11
365.764903150884
 21
573.762204858332
  0
LINE
  5
8F
100
AcDbEntity
  8
1
  6
CONTINUOUS
 62
           3
100
AcDbLine
 10
364.380505083205
 20
568.111781205662
 11
362.286428005565
 21
568.111781205662
  0
LINE
  5
8E
100
AcDbEntity
  8
1
  6
CONTINUOUS
 62
           3
100
AcDbLine
 10
362.286428005565
 20
568.111781205662
 11
363.370402064938
 21
572.536023629844
  0
LINE
  5
8D
100
AcDbEntity
  8
1
  6
CONTINUOUS
 62
           3
100
AcDbLine
 10
363.370402064938
 20
572.536023629844
 11
354.994093754409
 21
572.536023629844
  0
LINE
  5
8C
100
AcDbEntity
  8
1
  6
CONTINUOUS
 62
           3
100
AcDbLine
 10
355.536080784001
 20
574.748144842033
 11
363.912389094381
 21
574.748144842033
  0
LINE
  5
8B
100
AcDbEntity
  8
1
  6
CONTINUOUS
 62
           3
100
AcDbLine
 10
363.912389094381
 20
574.748144842033
 11
364.996363153703
 21
579.172387266269
  0
LINE
  5
8A
100
AcDbEntity
  8
1
  6
CONTINUOUS
 62
           3
100
AcDbLine
 10
364.996363153703
 20
579.172387266269
 11
356.620054843184
 21
579.172387266269
  0
LINE
  5
89
100
AcDbEntity
  8
1
  6
CONTINUOUS
 62
           3
100
AcDbLine
 10
356.620054843184
 20
579.172387266269
 11
355.536080784001
 21
574.748144842033
  0
LINE
  5
88
100
AcDbEntity
  8
1
  6
CONTINUOUS
 62
           3
100
AcDbLine
 10
365.328223469318
 20
571.979895810782
 11
364.380505083205
 21
568.111781205662
  0
LINE
  5
87
100
AcDbEntity
  8
1
  6
CONTINUOUS
 62
           3
100
AcDbLine
 10
351.816042617622
 20
568.111781205662
 11
353.910119695298
 21
568.111781205662
  0
LINE
  5
86
100
AcDbEntity
  8
1
  6
CONTINUOUS
 62
           3
100
AcDbLine
 10
353.910119695298
 20
568.111781205662
 11
354.994093754409
 21
572.536023629844
  0
LINE
  5
85
100
AcDbEntity
  8
1
  6
CONTINUOUS
 62
           3
100
AcDbLine
 10
372.239396831465
 20
581.38450847832
 11
370.145319753901
 21
581.38450847832
  0
LINE
  5
84
100
AcDbEntity
  8
1
  6
CONTINUOUS
 62
           3
100
AcDbLine
 10
370.145319753901
 20
581.38450847832
 11
366.893397576336
 21
568.111781205662
  0
LINE
  5
83
100
AcDbEntity
  8
1
  6
CONTINUOUS
 62
           3
100
AcDbLine
 10
366.893397576336
 20
568.111781205662
 11
368.987474654055
 21
568.111781205662
  0
LINE
  5
82
100
AcDbEntity
  8
1
  6
CONTINUOUS
 62
           3
100
AcDbLine
 10
368.987474654055
 20
568.111781205662
 11
372.239396831465
 21
581.38450847832
  0
LINE
  5
81
100
AcDbEntity
  8
1
  6
CONTINUOUS
 62
           3
100
AcDbLine
 10
371.50036714704
 20
568.111781205662
 11
374.752289324584
 21
581.38450847832
  0
LINE
  5
80
100
AcDbEntity
  8
1
  6
CONTINUOUS
 62
           3
100
AcDbLine
 10
374.752289324584
 20
581.38450847832
 11
387.316751790175
 21
581.38450847832
  0
LINE
  5
7F
100
AcDbEntity
  8
1
  6
CONTINUOUS
 62
           3
100
AcDbLine
 10
387.316751790175
 20
581.38450847832
 11
386.178579028048
 21
576.739053932891
  0
LINE
  5
7E
100
AcDbEntity
  8
1
  6
CONTINUOUS
 62
           3
100
AcDbLine
 10
384.064829612653
 20
568.111781205662
 11
371.50036714704
 21
568.111781205662
  0
LINE
  5
7D
100
AcDbEntity
  8
1
  6
CONTINUOUS
 62
           3
100
AcDbLine
 10
382.512739564605
 20
570.323902417793
 11
374.136431254276
 21
570.323902417793
  0
LINE
  5
7C
100
AcDbEntity
  8
1
  6
CONTINUOUS
 62
           3
100
AcDbLine
 10
384.6806876829
 20
579.172387266269
 11
384.084501950522
 21
576.739053932891
  0
LINE
  5
7B
100
AcDbEntity
  8
1
  6
CONTINUOUS
 62
           3
100
AcDbLine
 10
376.304379372603
 20
579.172387266269
 11
384.6806876829
 21
579.172387266269
  0
LINE
  5
7A
100
AcDbEntity
  8
1
  6
CONTINUOUS
 62
           3
100
AcDbLine
 10
374.136431254276
 20
570.323902417793
 11
376.304379372603
 21
579.172387266269
  0
LINE
  5
79
100
AcDbEntity
  8
1
  6
CONTINUOUS
 62
           3
100
AcDbLine
 10
385.690790701425
 20
574.748144842033
 11
379.408559468619
 21
574.748144842033
  0
LINE
  5
78
100
AcDbEntity
  8
1
  6
CONTINUOUS
 62
           3
100
AcDbLine
 10
385.690790701425
 20
574.748144842033
 11
384.064829612653
 21
568.111781205662
  0
LINE
  5
77
100
AcDbEntity
  8
1
  6
CONTINUOUS
 62
           3
100
AcDbLine
 10
379.408559468619
 20
574.748144842033
 11
378.866572438972
 21
572.536023629844
  0
LINE
  5
76
100
AcDbEntity
  8
1
  6
CONTINUOUS
 62
           3
100
AcDbLine
 10
378.866572438972
 20
572.536023629844
 11
383.054726594372
 21
572.536023629844
  0
LINE
  5
75
100
AcDbEntity
  8
1
  6
CONTINUOUS
 62
           3
100
AcDbLine
 10
383.054726594372
 20
572.536023629844
 11
382.512739564605
 21
570.323902417793
  0
LINE
  5
74
100
AcDbEntity
  8
1
  6
CONTINUOUS
 62
           3
100
AcDbLine
 10
384.084501950522
 20
576.739053932891
 11
386.178579028048
 21
576.739053932891
  0
LINE
  5
73
100
AcDbEntity
  8
1
  6
CONTINUOUS
 62
           3
100
AcDbLine
 10
386.577722105769
 20
568.111781205662
 11
388.671799183329
 21
568.111781205662
  0
LINE
  5
72
100
AcDbEntity
  8
1
  6
CONTINUOUS
 62
           3
100
AcDbLine
 10
388.671799183329
 20
568.111781205662
 11
391.923721360898
 21
581.38450847832
  0
LINE
  5
71
100
AcDbEntity
  8
1
  6
CONTINUOUS
 62
           3
100
AcDbLine
 10
389.829644283334
 20
581.38450847832
 11
386.577722105769
 21
568.111781205662
  0
LINE
  5
70
100
AcDbEntity
  8
1
  6
CONTINUOUS
 62
           3
100
AcDbLine
 10
391.923721360898
 20
581.38450847832
 11
389.829644283334
 21
581.38450847832
  0
LINE
  5
6F
100
AcDbEntity
  8
1
  6
CONTINUOUS
 62
           3
100
AcDbLine
 10
391.184691676499
 20
568.111781205662
 11
394.436613854014
 21
581.38450847832
  0
LINE
  5
6E
100
AcDbEntity
  8
1
  6
CONTINUOUS
 62
           3
100
AcDbLine
 10
394.436613854014
 20
581.38450847832
 11
397.577729470355
 21
581.38450847832
  0
LINE
  5
6D
100
AcDbEntity
  8
1
  6
CONTINUOUS
 62
           3
100
AcDbLine
 10
397.577729470355
 20
581.38450847832
 11
402.06156733663
 21
569.770872114746
  0
LINE
  5
6C
100
AcDbEntity
  8
1
  6
CONTINUOUS
 62
           3
100
AcDbLine
 10
402.06156733663
 20
569.770872114746
 11
404.906999241983
 21
581.38450847832
  0
LINE
  5
6B
100
AcDbEntity
  8
1
  6
CONTINUOUS
 62
           3
100
AcDbLine
 10
404.906999241983
 20
581.38450847832
 11
407.001076319597
 21
581.38450847832
  0
LINE
  5
6A
100
AcDbEntity
  8
1
  6
CONTINUOUS
 62
           3
100
AcDbLine
 10
407.001076319597
 20
581.38450847832
 11
403.749154141977
 21
568.111781205662
  0
LINE
  5
69
100
AcDbEntity
  8
1
  6
CONTINUOUS
 62
           3
100
AcDbLine
 10
403.749154141977
 20
568.111781205662
 11
400.506475653208
 21
568.111781205662
  0
LINE
  5
68
100
AcDbEntity
  8
1
  6
CONTINUOUS
 62
           3
100
AcDbLine
 10
400.506475653208
 20
568.111781205662
 11
396.725319317498
 21
577.905394629535
  0
LINE
  5
67
100
AcDbEntity
  8
1
  6
CONTINUOUS
 62
           3
100
AcDbLine
 10
396.725319317498
 20
577.905394629535
 11
396.084771050988
 21
579.564485538598
  0
LINE
  5
66
100
AcDbEntity
  8
1
  6
CONTINUOUS
 62
           3
100
AcDbLine
 10
396.084771050988
 20
579.564485538598
 11
393.278768754059
 21
568.111781205662
  0
LINE
  5
65
100
AcDbEntity
  8
1
  6
CONTINUOUS
 62
           3
100
AcDbLine
 10
393.278768754059
 20
568.111781205662
 11
391.184691676499
 21
568.111781205662
  0
LINE
  5
64
100
AcDbEntity
  8
1
  6
CONTINUOUS
 62
           3
100
AcDbLine
 10
406.262046635093
 20
568.111781205662
 11
413.77347691399
 21
581.38450847832
  0
LINE
  5
63
100
AcDbEntity
  8
1
  6
CONTINUOUS
 62
           3
100
AcDbLine
 10
413.77347691399
 20
581.38450847832
 11
417.818923176965
 21
581.38450847832
  0
LINE
  5
62
100
AcDbEntity
  8
1
  6
CONTINUOUS
 62
           3
100
AcDbLine
 10
417.818923176965
 20
581.38450847832
 11
418.826509100727
 21
568.111781205662
  0
LINE
  5
61
100
AcDbEntity
  8
1
  6
CONTINUOUS
 62
           3
100
AcDbLine
 10
418.826509100727
 20
568.111781205662
 11
416.796826937658
 21
568.111781205662
  0
LINE
  5
60
100
AcDbEntity
  8
1
  6
CONTINUOUS
 62
           3
100
AcDbLine
 10
416.796826937658
 20
568.111781205662
 11
416.628895950391
 21
570.323902417793
  0
LINE
  5
5F
100
AcDbEntity
  8
1
  6
CONTINUOUS
 62
           3
100
AcDbLine
 10
416.628895950391
 20
570.323902417793
 11
409.892748670027
 21
570.323902417793
  0
LINE
  5
5E
100
AcDbEntity
  8
1
  6
CONTINUOUS
 62
           3
100
AcDbLine
 10
409.892748670027
 20
570.323902417793
 11
408.640843623664
 21
568.111781205662
  0
LINE
  5
5D
100
AcDbEntity
  8
1
  6
CONTINUOUS
 62
           3
100
AcDbLine
 10
408.640843623664
 20
568.111781205662
 11
406.262046635093
 21
568.111781205662
  0
LINE
  5
5C
100
AcDbEntity
  8
1
  6
CONTINUOUS
 62
           3
100
AcDbLine
 10
411.144653716558
 20
572.536023629844
 11
416.460964963069
 21
572.536023629844
  0
LINE
  5
5B
100
AcDbEntity
  8
1
  6
CONTINUOUS
 62
           3
100
AcDbLine
 10
416.460964963069
 20
572.536023629844
 11
415.957172001214
 21
579.172387266269
  0
LINE
  5
5A
100
AcDbEntity
  8
1
  6
CONTINUOUS
 62
           3
100
AcDbLine
 10
415.957172001214
 20
579.172387266269
 11
414.900368855924
 21
579.172387266269
  0
LINE
  5
59
100
AcDbEntity
  8
1
  6
CONTINUOUS
 62
           3
100
AcDbLine
 10
411.144653716558
 20
572.536023629844
 11
414.900368855924
 21
579.172387266269
  0
LINE
  5
58
100
AcDbEntity
  8
1
  6
CONTINUOUS
 62
           3
100
AcDbLine
 10
424.591323771416
 20
581.38450847832
 11
421.339401593847
 21
568.111781205662
  0
LINE
  5
57
100
AcDbEntity
  8
1
  6
CONTINUOUS
 62
           3
100
AcDbLine
 10
421.339401593847
 20
568.111781205662
 11
433.903864059426
 21
568.111781205662
  0
LINE
  5
56
100
AcDbEntity
  8
1
  6
CONTINUOUS
 62
           3
100
AcDbLine
 10
433.903864059426
 20
568.111781205662
 11
434.445851089087
 21
570.323902417793
  0
LINE
  5
55
100
AcDbEntity
  8
1
  6
CONTINUOUS
 62
           3
100
AcDbLine
 10
434.445851089087
 20
570.323902417793
 11
423.975465701067
 21
570.323902417793
  0
LINE
  5
54
100
AcDbEntity
  8
1
  6
CONTINUOUS
 62
           3
100
AcDbLine
 10
423.975465701067
 20
570.323902417793
 11
426.68540084903
 21
581.38450847832
  0
LINE
  5
53
100
AcDbEntity
  8
1
  6
CONTINUOUS
 62
           3
100
AcDbLine
 10
426.68540084903
 20
581.38450847832
 11
424.591323771416
 21
581.38450847832
  0
LINE
  5
52
100
AcDbEntity
  8
1
  6
CONTINUOUS
 62
           3
100
AcDbLine
 10
471.206636135699
 20
575.200111213842
 11
471.206636135699
 21
572.451055788282
  0
LINE
  5
51
100
AcDbEntity
  8
1
  6
CONTINUOUS
 62
           3
100
AcDbLine
 10
470.334188436584
 20
572.451055788282
 11
470.334188436584
 21
579.309523963456
  0
LINE
  5
50
100
AcDbEntity
  8
1
  6
CONTINUOUS
 62
           3
100
AcDbLine
 10
470.334188436584
 20
579.309523963456
 11
472.776108295824
 21
579.309523963456
  0
LINE
  5
4F
100
AcDbEntity
  8
1
  6
CONTINUOUS
 62
           3
100
AcDbLine
 10
472.776108295824
 20
579.309523963456
 11
473.072464878176
 21
579.309523963456
  0
LINE
  5
4E
100
AcDbEntity
  8
1
  6
CONTINUOUS
 62
           3
100
AcDbLine
 10
474.906099392742
 20
574.330689554626
 11
474.906099392742
 21
572.451055788282
  0
LINE
  5
4D
100
AcDbEntity
  8
1
  6
CONTINUOUS
 62
           3
100
AcDbLine
 10
474.906099392742
 20
572.451055788282
 11
473.944912577237
 21
572.451055788282
  0
LINE
  5
4C
100
AcDbEntity
  8
1
  6
CONTINUOUS
 62
           3
100
AcDbLine
 10
473.944912577237
 20
572.451055788282
 11
473.944912577237
 21
574.0729110559
  0
LINE
  5
4B
100
AcDbEntity
  8
1
  6
CONTINUOUS
 62
           3
100
AcDbLine
 10
472.931697837317
 20
575.200111213842
 11
471.206636135699
 21
575.200111213842
  0
LINE
  5
4A
100
AcDbEntity
  8
1
  6
CONTINUOUS
 62
           3
100
AcDbLine
 10
471.206636135699
 20
572.451055788282
 11
470.334188436584
 21
572.451055788282
  0
LINE
  5
49
100
AcDbEntity
  8
1
  6
CONTINUOUS
 62
           3
100
AcDbLine
 10
471.206636135699
 20
576.050334541276
 11
473.194119363641
 21
576.050334541276
  0
LINE
  5
48
100
AcDbEntity
  8
1
  6
CONTINUOUS
 62
           3
100
AcDbLine
 10
473.062609127785
 20
578.505992531278
 11
471.206636135699
 21
578.505992531278
  0
LINE
  5
47
100
AcDbEntity
  8
1
  6
CONTINUOUS
 62
           3
100
AcDbLine
 10
471.206636135699
 20
578.505992531278
 11
471.206636135699
 21
576.050334541276
  0
ENDBLK
  5
FB
100
AcDbEntity
  8
0
100
AcDbBlockEnd
  0
ENDSEC
  0
SECTION
  2
ENTITIES
  0
TEXT
  5
FF
100
AcDbEntity
  8
1
 62
           2
100
AcDbText
 10
300.0
 20
440.0
 40
35.0
  1
Smart-Line 47
 41
0.71262
  7
CONVERTER_1
100
AcDbText
  0
MTEXT
  5
FE
100
AcDbEntity
  8
1
 62
           3
100
AcDbMText
 10
800.999999999999
 20
318.000000000001
 30
0.0
 40
35.0
 41
0.0
 71
           1
 72
           1
  1
ø 52
  7
CONVERTER_1
  0
INSERT
  5
2D
100
AcDbEntity
  8
0
100
AcDbBlockReference
  2
WANNE_SMART_LINE_47
 10
0.0
 20
0.0
  0
INSERT
  5
2E
100
AcDbEntity
  8
0
100
AcDbBlockReference
  2
DLX
 10
0.0
 20
0.0
  0
ENDSEC
  0
SECTION
  2
OBJECTS
  0
DICTIONARY
  5
19
100
AcDbDictionary
  3
ACAD_GROUP
350
1A
  3
ACAD_MLINESTYLE
350
1B
  0
DICTIONARY
  5
1A
102
{ACAD_REACTORS
330
19
102
}
100
AcDbDictionary
  0
DICTIONARY
  5
1B
102
{ACAD_REACTORS
330
19
102
}
100
AcDbDictionary
  3
STANDARD
350
1C
  0
MLINESTYLE
  5
1C
102
{ACAD_REACTORS
330
1B
102
}
100
AcDbMlineStyle
  2
STANDARD
 70
           0
  3

 62
           0
 51
90.0
 52
90.0
 71
           2
 49
0.5
 62
         256
  6
BYLAYER
 49
-0.5
 62
         256
  6
BYLAYER
  0
ENDSEC
  0
EOF
