  0
SECTION
  2
HEADER
  9
$ACADVER
  1
AC1018
  9
$ACADMAINTVER
 70
     0
  9
$DWGCODEPAGE
  3
ANSI_1252
  9
$INSBASE
 10
0.0
 20
0.0
 30
0.0
  9
$EXTMIN
 10
1.000000000000000E+20
 20
1.000000000000000E+20
 30
1.000000000000000E+20
  9
$EXTMAX
 10
-1.000000000000000E+20
 20
-1.000000000000000E+20
 30
-1.000000000000000E+20
  9
$LIMMIN
 10
0.0
 20
0.0
  9
$LIMMAX
 10
12.0
 20
9.0
  9
$ORTHOMODE
 70
     0
  9
$REGENMODE
 70
     1
  9
$FILLMODE
 70
     1
  9
$QTEXTMODE
 70
     0
  9
$MIRRTEXT
 70
     1
  9
$LTSCALE
 40
1.0
  9
$ATTMODE
 70
     1
  9
$TEXTSIZE
 40
0.2
  9
$TRACEWID
 40
0.05
  9
$TEXTSTYLE
  7
Standard
  9
$CLAYER
  8
0
  9
$CELTYPE
  6
ByLayer
  9
$CECOLOR
 62
   256
  9
$CELTSCALE
 40
1.0
  9
$DISPSILH
 70
     0
  9
$DIMSCALE
 40
1.0
  9
$DIMASZ
 40
0.18
  9
$DIMEXO
 40
0.0625
  9
$DIMDLI
 40
0.38
  9
$DIMRND
 40
0.0
  9
$DIMDLE
 40
0.0
  9
$DIMEXE
 40
0.18
  9
$DIMTP
 40
0.0
  9
$DIMTM
 40
0.0
  9
$DIMTXT
 40
0.18
  9
$DIMCEN
 40
0.09
  9
$DIMTSZ
 40
0.0
  9
$DIMTOL
 70
     0
  9
$DIMLIM
 70
     0
  9
$DIMTIH
 70
     1
  9
$DIMTOH
 70
     1
  9
$DIMSE1
 70
     0
  9
$DIMSE2
 70
     0
  9
$DIMTAD
 70
     0
  9
$DIMZIN
 70
     0
  9
$DIMBLK
  1

  9
$DIMASO
 70
     1
  9
$DIMSHO
 70
     1
  9
$DIMPOST
  1

  9
$DIMAPOST
  1

  9
$DIMALT
 70
     0
  9
$DIMALTD
 70
     2
  9
$DIMALTF
 40
25.4
  9
$DIMLFAC
 40
1.0
  9
$DIMTOFL
 70
     0
  9
$DIMTVP
 40
0.0
  9
$DIMTIX
 70
     0
  9
$DIMSOXD
 70
     0
  9
$DIMSAH
 70
     0
  9
$DIMBLK1
  1

  9
$DIMBLK2
  1

  9
$DIMSTYLE
  2
Standard
  9
$DIMCLRD
 70
     0
  9
$DIMCLRE
 70
     0
  9
$DIMCLRT
 70
     0
  9
$DIMTFAC
 40
1.0
  9
$DIMGAP
 40
0.09
  9
$DIMJUST
 70
     0
  9
$DIMSD1
 70
     0
  9
$DIMSD2
 70
     0
  9
$DIMTOLJ
 70
     1
  9
$DIMTZIN
 70
     0
  9
$DIMALTZ
 70
     0
  9
$DIMALTTZ
 70
     0
  9
$DIMUPT
 70
     0
  9
$DIMDEC
 70
     4
  9
$DIMTDEC
 70
     4
  9
$DIMALTU
 70
     2
  9
$DIMALTTD
 70
     2
  9
$DIMTXSTY
  7
Standard
  9
$DIMAUNIT
 70
     0
  9
$DIMADEC
 70
     0
  9
$DIMALTRND
 40
0.0
  9
$DIMAZIN
 70
     0
  9
$DIMDSEP
 70
    46
  9
$DIMATFIT
 70
     3
  9
$DIMFRAC
 70
     0
  9
$DIMLDRBLK
  1

  9
$DIMLUNIT
 70
     2
  9
$DIMLWD
 70
    -2
  9
$DIMLWE
 70
    -2
  9
$DIMTMOVE
 70
     0
  9
$LUNITS
 70
     2
  9
$LUPREC
 70
     4
  9
$SKETCHINC
 40
0.1
  9
$FILLETRAD
 40
0.5
  9
$AUNITS
 70
     0
  9
$AUPREC
 70
     0
  9
$MENU
  1
.
  9
$ELEVATION
 40
0.0
  9
$PELEVATION
 40
0.0
  9
$THICKNESS
 40
0.0
  9
$LIMCHECK
 70
     0
  9
$CHAMFERA
 40
0.5
  9
$CHAMFERB
 40
0.5
  9
$CHAMFERC
 40
1.0
  9
$CHAMFERD
 40
0.0
  9
$SKPOLY
 70
     0
  9
$TDCREATE
 40
2457690.449165567
  9
$TDUCREATE
 40
2457690.365832234
  9
$TDUPDATE
 40
2457690.449165579
  9
$TDUUPDATE
 40
2457690.365832245
  9
$TDINDWG
 40
0.0000000116
  9
$TDUSRTIMER
 40
0.0000000116
  9
$USRTIMER
 70
     1
  9
$ANGBASE
 50
0.0
  9
$ANGDIR
 70
     0
  9
$PDMODE
 70
     0
  9
$PDSIZE
 40
0.0
  9
$PLINEWID
 40
0.0
  9
$SPLFRAME
 70
     0
  9
$SPLINETYPE
 70
     6
  9
$SPLINESEGS
 70
     8
  9
$HANDSEED
  5
15D
  9
$SURFTAB1
 70
     6
  9
$SURFTAB2
 70
     6
  9
$SURFTYPE
 70
     6
  9
$SURFU
 70
     6
  9
$SURFV
 70
     6
  9
$UCSBASE
  2

  9
$UCSNAME
  2

  9
$UCSORG
 10
0.0
 20
0.0
 30
0.0
  9
$UCSXDIR
 10
1.0
 20
0.0
 30
0.0
  9
$UCSYDIR
 10
0.0
 20
1.0
 30
0.0
  9
$UCSORTHOREF
  2

  9
$UCSORTHOVIEW
 70
     0
  9
$UCSORGTOP
 10
0.0
 20
0.0
 30
0.0
  9
$UCSORGBOTTOM
 10
0.0
 20
0.0
 30
0.0
  9
$UCSORGLEFT
 10
0.0
 20
0.0
 30
0.0
  9
$UCSORGRIGHT
 10
0.0
 20
0.0
 30
0.0
  9
$UCSORGFRONT
 10
0.0
 20
0.0
 30
0.0
  9
$UCSORGBACK
 10
0.0
 20
0.0
 30
0.0
  9
$PUCSBASE
  2

  9
$PUCSNAME
  2

  9
$PUCSORG
 10
0.0
 20
0.0
 30
0.0
  9
$PUCSXDIR
 10
1.0
 20
0.0
 30
0.0
  9
$PUCSYDIR
 10
0.0
 20
1.0
 30
0.0
  9
$PUCSORTHOREF
  2

  9
$PUCSORTHOVIEW
 70
     0
  9
$PUCSORGTOP
 10
0.0
 20
0.0
 30
0.0
  9
$PUCSORGBOTTOM
 10
0.0
 20
0.0
 30
0.0
  9
$PUCSORGLEFT
 10
0.0
 20
0.0
 30
0.0
  9
$PUCSORGRIGHT
 10
0.0
 20
0.0
 30
0.0
  9
$PUCSORGFRONT
 10
0.0
 20
0.0
 30
0.0
  9
$PUCSORGBACK
 10
0.0
 20
0.0
 30
0.0
  9
$USERI1
 70
     0
  9
$USERI2
 70
     0
  9
$USERI3
 70
     0
  9
$USERI4
 70
     0
  9
$USERI5
 70
     0
  9
$USERR1
 40
0.0
  9
$USERR2
 40
0.0
  9
$USERR3
 40
0.0
  9
$USERR4
 40
0.0
  9
$USERR5
 40
0.0
  9
$WORLDVIEW
 70
     1
  9
$SHADEDGE
 70
     3
  9
$SHADEDIF
 70
    70
  9
$TILEMODE
 70
     1
  9
$MAXACTVP
 70
    64
  9
$PINSBASE
 10
0.0
 20
0.0
 30
0.0
  9
$PLIMCHECK
 70
     0
  9
$PEXTMIN
 10
1.000000000000000E+20
 20
1.000000000000000E+20
 30
1.000000000000000E+20
  9
$PEXTMAX
 10
-1.000000000000000E+20
 20
-1.000000000000000E+20
 30
-1.000000000000000E+20
  9
$PLIMMIN
 10
0.0
 20
0.0
  9
$PLIMMAX
 10
12.0
 20
9.0
  9
$UNITMODE
 70
     0
  9
$VISRETAIN
 70
     1
  9
$PLINEGEN
 70
     0
  9
$PSLTSCALE
 70
     1
  9
$TREEDEPTH
 70
  3020
  9
$CMLSTYLE
  2
Standard
  9
$CMLJUST
 70
     0
  9
$CMLSCALE
 40
1.0
  9
$PROXYGRAPHICS
 70
     1
  9
$MEASUREMENT
 70
     0
  9
$CELWEIGHT
370
    -1
  9
$ENDCAPS
280
     0
  9
$JOINSTYLE
280
     0
  9
$LWDISPLAY
290
     1
  9
$INSUNITS
 70
     1
  9
$HYPERLINKBASE
  1

  9
$STYLESHEET
  1

  9
$XEDIT
290
     1
  9
$CEPSNTYPE
380
     0
  9
$PSTYLEMODE
290
     1
  9
$FINGERPRINTGUID
  2
{342E7681-7E02-4F0C-B24B-0222D25DDB91}
  9
$VERSIONGUID
  2
{FAEB1C32-E019-11D5-929B-00C0DF256EC4}
  9
$EXTNAMES
290
     1
  9
$PSVPSCALE
 40
0.0
  9
$OLESTARTUP
290
     0
  9
$SORTENTS
280
   127
  9
$INDEXCTL
280
     0
  9
$HIDETEXT
280
     1
  9
$XCLIPFRAME
290
     0
  9
$HALOGAP
280
     0
  9
$OBSCOLOR
 70
   257
  9
$OBSLTYPE
280
     0
  9
$INTERSECTIONDISPLAY
280
     0
  9
$INTERSECTIONCOLOR
 70
   257
  9
$DIMASSOC
280
     2
  9
$PROJECTNAME
  1

  0
ENDSEC
  0
SECTION
  2
CLASSES
  0
CLASS
  1
ACDBDICTIONARYWDFLT
  2
AcDbDictionaryWithDefault
  3
ObjectDBX Classes
 90
        0
 91
        3
280
     0
281
     0
  0
CLASS
  1
VISUALSTYLE
  2
AcDbVisualStyle
  3
ObjectDBX Classes
 90
     4095
 91
        3
280
     0
281
     0
  0
ENDSEC
  0
SECTION
  2
TABLES
  0
TABLE
  2
VPORT
  5
8
330
0
100
AcDbSymbolTable
 70
     1
  0
VPORT
  5
29
330
8
100
AcDbSymbolTableRecord
100
AcDbViewportTableRecord
  2
*Active
 70
     0
 10
0.0
 20
0.0
 11
1.0
 21
1.0
 12
0.0
 22
0.0
 13
0.0
 23
0.0
 14
0.5
 24
0.5
 15
0.5
 25
0.5
 16
0.0
 26
0.0
 36
1.0
 17
300.0
 27
-300.0
 37
0.0
 40
600.0
 41
1.0
 42
50.0
 43
0.0
 44
0.0
 50
0.0
 51
0.0
 71
     0
 72
   100
 73
     1
 74
     3
 75
     0
 76
     0
 77
     0
 78
     0
281
     0
 65
     1
110
0.0
120
0.0
130
0.0
111
1.0
121
0.0
131
0.0
112
0.0
122
1.0
132
0.0
 79
     0
146
0.0
  0
ENDTAB
  0
TABLE
  2
LTYPE
  5
5
330
0
100
AcDbSymbolTable
 70
     1
  0
LTYPE
  5
14
330
5
100
AcDbSymbolTableRecord
100
AcDbLinetypeTableRecord
  2
ByBlock
 70
     0
  3

 72
    65
 73
     0
 40
0.0
  0
LTYPE
  5
15
330
5
100
AcDbSymbolTableRecord
100
AcDbLinetypeTableRecord
  2
ByLayer
 70
     0
  3

 72
    65
 73
     0
 40
0.0
  0
LTYPE
  5
16
330
5
100
AcDbSymbolTableRecord
100
AcDbLinetypeTableRecord
  2
Continuous
 70
     0
  3
Solid line
 72
    65
 73
     0
 40
0.0
  0
ENDTAB
  0
TABLE
  2
LAYER
  5
2
330
0
100
AcDbSymbolTable
 70
     5
  0
LAYER
  5
10
330
2
100
AcDbSymbolTableRecord
100
AcDbLayerTableRecord
  2
0
 70
     0
 62
     7
  6
Continuous
370
    -3
390
F
  0
LAYER
  5
3B
330
2
100
AcDbSymbolTableRecord
100
AcDbLayerTableRecord
  2
Produkt
 70
     0
 62
     7
  6
Continuous
370
    -3
390
F
  0
LAYER
  5
4E
330
2
100
AcDbSymbolTableRecord
100
AcDbLayerTableRecord
  2
Mass
 70
     0
 62
     7
  6
Continuous
370
    -3
390
F
  0
LAYER
  5
BB
330
2
100
AcDbSymbolTableRecord
100
AcDbLayerTableRecord
  2
Text
 70
     1
 62
     7
  6
Continuous
370
    -3
390
F
  0
LAYER
  5
D2
330
2
100
AcDbSymbolTableRecord
100
AcDbLayerTableRecord
  2
Text Kopie
 70
     0
 62
     7
  6
Continuous
370
    -3
390
F
  0
ENDTAB
  0
TABLE
  2
STYLE
  5
3
330
0
100
AcDbSymbolTable
 70
     1
  0
STYLE
  5
11
330
3
100
AcDbSymbolTableRecord
100
AcDbTextStyleTableRecord
  2
Standard
 70
     0
 40
0.0
 41
1.0
 50
0.0
 71
     0
 42
0.2
  3
txt
  4

  0
ENDTAB
  0
TABLE
  2
VIEW
  5
6
330
0
100
AcDbSymbolTable
 70
     0
  0
ENDTAB
  0
TABLE
  2
UCS
  5
7
330
0
100
AcDbSymbolTable
 70
     0
  0
ENDTAB
  0
TABLE
  2
APPID
  5
9
330
0
100
AcDbSymbolTable
 70
     1
  0
APPID
  5
12
330
9
100
AcDbSymbolTableRecord
100
AcDbRegAppTableRecord
  2
ACAD
 70
     0
  0
ENDTAB
  0
TABLE
  2
DIMSTYLE
  5
A
330
0
100
AcDbSymbolTable
 70
     1
100
AcDbDimStyleTable
  0
DIMSTYLE
105
27
330
A
100
AcDbSymbolTableRecord
100
AcDbDimStyleTableRecord
  2
Standard
 70
     0
340
11
  0
ENDTAB
  0
TABLE
  2
BLOCK_RECORD
  5
1
330
0
100
AcDbSymbolTable
 70
    18
  0
BLOCK_RECORD
  5
1F
330
1
100
AcDbSymbolTableRecord
100
AcDbBlockTableRecord
  2
*Model_Space
340
22
  0
BLOCK_RECORD
  5
1B
330
1
100
AcDbSymbolTableRecord
100
AcDbBlockTableRecord
  2
*Paper_Space
340
1E
  0
BLOCK_RECORD
  5
23
330
1
100
AcDbSymbolTableRecord
100
AcDbBlockTableRecord
  2
*Paper_Space0
340
26
  0
BLOCK_RECORD
  5
48
330
1
100
AcDbSymbolTableRecord
100
AcDbBlockTableRecord
  2
block 2
340
0
102
{BLKREFS
331
49
102
}
  0
BLOCK_RECORD
  5
C5
330
1
100
AcDbSymbolTableRecord
100
AcDbBlockTableRecord
  2
block 3
340
0
102
{BLKREFS
331
C6
102
}
  0
BLOCK_RECORD
  5
C9
330
1
100
AcDbSymbolTableRecord
100
AcDbBlockTableRecord
  2
block 4
340
0
102
{BLKREFS
331
CA
102
}
  0
BLOCK_RECORD
  5
CD
330
1
100
AcDbSymbolTableRecord
100
AcDbBlockTableRecord
  2
block 5
340
0
102
{BLKREFS
331
CE
102
}
  0
BLOCK_RECORD
  5
D3
330
1
100
AcDbSymbolTableRecord
100
AcDbBlockTableRecord
  2
block 6
340
0
102
{BLKREFS
331
D4
102
}
  0
BLOCK_RECORD
  5
DE
330
1
100
AcDbSymbolTableRecord
100
AcDbBlockTableRecord
  2
block 7
340
0
102
{BLKREFS
331
DF
102
}
  0
BLOCK_RECORD
  5
E9
330
1
100
AcDbSymbolTableRecord
100
AcDbBlockTableRecord
  2
block 8
340
0
102
{BLKREFS
331
EA
102
}
  0
BLOCK_RECORD
  5
F6
330
1
100
AcDbSymbolTableRecord
100
AcDbBlockTableRecord
  2
block 9
340
0
102
{BLKREFS
331
F7
102
}
  0
BLOCK_RECORD
  5
103
330
1
100
AcDbSymbolTableRecord
100
AcDbBlockTableRecord
  2
block 10
340
0
102
{BLKREFS
331
104
102
}
  0
BLOCK_RECORD
  5
110
330
1
100
AcDbSymbolTableRecord
100
AcDbBlockTableRecord
  2
block 11
340
0
102
{BLKREFS
331
111
102
}
  0
BLOCK_RECORD
  5
119
330
1
100
AcDbSymbolTableRecord
100
AcDbBlockTableRecord
  2
block 12
340
0
102
{BLKREFS
331
11A
102
}
  0
BLOCK_RECORD
  5
12F
330
1
100
AcDbSymbolTableRecord
100
AcDbBlockTableRecord
  2
block 13
340
0
102
{BLKREFS
331
130
102
}
  0
BLOCK_RECORD
  5
137
330
1
100
AcDbSymbolTableRecord
100
AcDbBlockTableRecord
  2
block 14
340
0
102
{BLKREFS
331
138
102
}
  0
BLOCK_RECORD
  5
144
330
1
100
AcDbSymbolTableRecord
100
AcDbBlockTableRecord
  2
block 15
340
0
102
{BLKREFS
331
145
102
}
  0
BLOCK_RECORD
  5
148
330
1
100
AcDbSymbolTableRecord
100
AcDbBlockTableRecord
  2
block 16
340
0
102
{BLKREFS
331
149
102
}
  0
BLOCK_RECORD
  5
14C
330
1
100
AcDbSymbolTableRecord
100
AcDbBlockTableRecord
  2
block 17
340
0
102
{BLKREFS
331
14D
102
}
  0
BLOCK_RECORD
  5
150
330
1
100
AcDbSymbolTableRecord
100
AcDbBlockTableRecord
  2
block 18
340
0
102
{BLKREFS
331
151
102
}
  0
ENDTAB
  0
ENDSEC
  0
SECTION
  2
BLOCKS
  0
BLOCK
  5
20
330
1F
100
AcDbEntity
  8
0
100
AcDbBlockBegin
  2
*Model_Space
 70
     0
 71
     0
 10
0.0
 20
0.0
 30
0.0
  3
*Model_Space
  1

  0
ENDBLK
  5
21
330
1F
100
AcDbEntity
  8
0
100
AcDbBlockEnd
  0
BLOCK
  5
1C
330
1B
100
AcDbEntity
 67
     1
  8
0
100
AcDbBlockBegin
  2
*Paper_Space
 70
     0
 71
     0
 10
0.0
 20
0.0
 30
0.0
  3
*Paper_Space
  1

  0
ENDBLK
  5
1D
330
1B
100
AcDbEntity
 67
     1
  8
0
100
AcDbBlockEnd
  0
BLOCK
  5
24
330
23
100
AcDbEntity
  8
0
100
AcDbBlockBegin
  2
*Paper_Space0
 70
     0
 71
     0
 10
0.0
 20
0.0
 30
0.0
  3
*Paper_Space0
  1

  0
ENDBLK
  5
25
330
23
100
AcDbEntity
  8
0
100
AcDbBlockEnd
  0
BLOCK
  5
4A
330
48
100
AcDbEntity
  8
0
100
AcDbBlockBegin
  2
block 2
 70
     0
 71
     0
 10
0.0
 20
0.0
 30
0.0
  3
block 2
  1

  0
SPLINE
  5
4C
330
48
100
AcDbEntity
  8
Produkt
 62
   250
420
  1842203
370
    35
100
AcDbSpline
210
0.0
220
0.0
230
1.0
 70
    11
 71
     3
 72
    17
 73
    13
 74
     0
 42
0.0000000001
 43
0.0000000001
 40
0.0
 40
0.0
 40
0.0
 40
0.0
 40
1.0
 40
1.0
 40
1.0
 40
2.0
 40
2.0
 40
2.0
 40
3.0
 40
3.0
 40
3.0
 40
4.0
 40
4.0
 40
4.0
 40
4.0
 10
492.0
 20
-282.0
 30
0.0
 10
492.0
 20
-286.6943359375
 30
0.0
 10
490.4326171875
 20
-290.5
 30
0.0
 10
488.5
 20
-290.5
 30
0.0
 10
486.5673828125
 20
-290.5
 30
0.0
 10
485.0
 20
-286.6943359375
 30
0.0
 10
485.0
 20
-282.0
 30
0.0
 10
485.0
 20
-277.3056640625
 30
0.0
 10
486.5673828125
 20
-273.5
 30
0.0
 10
488.5
 20
-273.5
 30
0.0
 10
490.4326171875
 20
-273.5
 30
0.0
 10
492.0
 20
-277.3056640625
 30
0.0
 10
492.0
 20
-282.0
 30
0.0
  0
SPLINE
  5
4D
330
48
100
AcDbEntity
  8
Produkt
 62
   250
420
  1842203
370
    35
100
AcDbSpline
210
0.0
220
0.0
230
1.0
 70
    11
 71
     3
 72
    17
 73
    13
 74
     0
 42
0.0000000001
 43
0.0000000001
 40
0.0
 40
0.0
 40
0.0
 40
0.0
 40
1.0
 40
1.0
 40
1.0
 40
2.0
 40
2.0
 40
2.0
 40
3.0
 40
3.0
 40
3.0
 40
4.0
 40
4.0
 40
4.0
 40
4.0
 10
489.5
 20
-282.0
 30
0.0
 10
489.5
 20
-286.6943359375
 30
0.0
 10
487.9326171875
 20
-290.5
 30
0.0
 10
486.0
 20
-290.5
 30
0.0
 10
484.0673828125
 20
-290.5
 30
0.0
 10
482.5
 20
-286.6943359375
 30
0.0
 10
482.5
 20
-282.0
 30
0.0
 10
482.5
 20
-277.3056640625
 30
0.0
 10
484.0673828125
 20
-273.5
 30
0.0
 10
486.0
 20
-273.5
 30
0.0
 10
487.9326171875
 20
-273.5
 30
0.0
 10
489.5
 20
-277.3056640625
 30
0.0
 10
489.5
 20
-282.0
 30
0.0
  0
ENDBLK
  5
4B
330
48
100
AcDbEntity
  8
0
100
AcDbBlockEnd
  0
BLOCK
  5
C7
330
C5
100
AcDbEntity
  8
0
100
AcDbBlockBegin
  2
block 3
 70
     0
 71
     0
 10
0.0
 20
0.0
 30
0.0
  3
block 3
  1

  0
INSERT
  5
CA
330
C5
100
AcDbEntity
  8
Text
100
AcDbBlockReference
  2
block 4
 10
0.0
 20
0.0
 30
0.0
  0
ENDBLK
  5
C8
330
C5
100
AcDbEntity
  8
0
100
AcDbBlockEnd
  0
BLOCK
  5
CB
330
C9
100
AcDbEntity
  8
0
100
AcDbBlockBegin
  2
block 4
 70
     0
 71
     0
 10
0.0
 20
0.0
 30
0.0
  3
block 4
  1

  0
INSERT
  5
CE
330
C9
100
AcDbEntity
  8
Text
100
AcDbBlockReference
  2
block 5
 10
0.0
 20
0.0
 30
0.0
  0
ENDBLK
  5
CC
330
C9
100
AcDbEntity
  8
0
100
AcDbBlockEnd
  0
BLOCK
  5
CF
330
CD
100
AcDbEntity
  8
0
100
AcDbBlockBegin
  2
block 5
 70
     0
 71
     0
 10
0.0
 20
0.0
 30
0.0
  3
block 5
  1

  0
MTEXT
  5
D1
330
CD
100
AcDbEntity
  8
Text
 62
   250
420
  1842203
100
AcDbMText
 10
352.69921875
 20
-320.75
 30
0.0
 40
20.4
 41
0.0
 71
     7
 72
     1
  1
\fHelvetica|b1|i0|c0|p34;\W1;Ø52
 73
     1
 44
1.0
  0
ENDBLK
  5
D0
330
CD
100
AcDbEntity
  8
0
100
AcDbBlockEnd
  0
BLOCK
  5
D5
330
D3
100
AcDbEntity
  8
0
100
AcDbBlockBegin
  2
block 6
 70
     0
 71
     0
 10
0.0
 20
0.0
 30
0.0
  3
block 6
  1

  0
SPLINE
  5
D7
330
D3
100
AcDbEntity
  8
Text Kopie
370
     0
100
AcDbSpline
210
0.0
220
0.0
230
1.0
 70
    11
 71
     3
 72
    26
 73
    22
 74
     0
 42
0.0000000001
 43
0.0000000001
 40
0.0
 40
0.0
 40
0.0
 40
0.0
 40
1.0
 40
1.0
 40
1.0
 40
2.0
 40
2.0
 40
2.0
 40
3.0
 40
3.0
 40
3.0
 40
4.0
 40
4.0
 40
4.0
 40
5.0
 40
5.0
 40
5.0
 40
6.0
 40
6.0
 40
6.0
 40
7.0
 40
7.0
 40
7.0
 40
7.0
 10
13.8935546875
 20
-307.779296875
 30
0.0
 10
16.11328125
 20
-309.865234375
 30
0.0
 10
22.4130859375
 20
-315.2021484375
 30
0.0
 10
31.5927734375
 20
-315.7236328125
 30
0.0
 10
31.5927734375
 20
-315.7236328125
 30
0.0
 10
31.5927734375
 20
-320.1396484375
 30
0.0
 10
31.5927734375
 20
-320.1396484375
 30
0.0
 10
23.0732421875
 20
-319.6796875
 30
0.0
 10
16.29345703125
 20
-314.220703125
 30
0.0
 10
14.37353515625
 20
-312.3798828125
 30
0.0
 10
14.37353515625
 20
-312.3798828125
 30
0.0
 10
14.37353515625
 20
-323.20703125
 30
0.0
 10
14.37353515625
 20
-323.20703125
 30
0.0
 10
14.37353515625
 20
-323.20703125
 30
0.0
 10
10.65380859375
 20
-323.115234375
 30
0.0
 10
10.65380859375
 20
-323.115234375
 30
0.0
 10
10.65380859375
 20
-323.115234375
 30
0.0
 10
10.65380859375
 20
-307.779296875
 30
0.0
 10
10.65380859375
 20
-307.779296875
 30
0.0
 10
10.65380859375
 20
-307.779296875
 30
0.0
 10
13.8935546875
 20
-307.779296875
 30
0.0
 10
13.8935546875
 20
-307.779296875
 30
0.0
  0
HATCH
  5
D8
330
D3
100
AcDbEntity
  8
Text Kopie
 62
   250
420
  1842203
100
AcDbHatch
 10
0.0
 20
0.0
 30
0.0
210
0.0
220
0.0
230
1.0
  2
SOLID
 70
     1
 71
     0
 91
        1
 92
        1
 93
        1
 72
     4
 94
        3
 73
     0
 74
     1
 95
       26
 96
       22
 40
0.0
 40
0.0
 40
0.0
 40
0.0
 40
1.0
 40
1.0
 40
1.0
 40
2.0
 40
2.0
 40
2.0
 40
3.0
 40
3.0
 40
3.0
 40
4.0
 40
4.0
 40
4.0
 40
5.0
 40
5.0
 40
5.0
 40
6.0
 40
6.0
 40
6.0
 40
7.0
 40
7.0
 40
7.0
 40
7.0
 10
13.8935546875
 20
-307.779296875
 10
16.11328125
 20
-309.865234375
 10
22.4130859375
 20
-315.2021484375
 10
31.5927734375
 20
-315.7236328125
 10
31.5927734375
 20
-315.7236328125
 10
31.5927734375
 20
-320.1396484375
 10
31.5927734375
 20
-320.1396484375
 10
23.0732421875
 20
-319.6796875
 10
16.29345703125
 20
-314.220703125
 10
14.37353515625
 20
-312.3798828125
 10
14.37353515625
 20
-312.3798828125
 10
14.37353515625
 20
-323.20703125
 10
14.37353515625
 20
-323.20703125
 10
14.37353515625
 20
-323.20703125
 10
10.65380859375
 20
-323.115234375
 10
10.65380859375
 20
-323.115234375
 10
10.65380859375
 20
-323.115234375
 10
10.65380859375
 20
-307.779296875
 10
10.65380859375
 20
-307.779296875
 10
10.65380859375
 20
-307.779296875
 10
13.8935546875
 20
-307.779296875
 10
13.8935546875
 20
-307.779296875
 97
        0
 75
     2
 76
     1
 98
        0
  0
SPLINE
  5
D9
330
D3
100
AcDbEntity
  8
Text Kopie
370
     0
100
AcDbSpline
210
0.0
220
0.0
230
1.0
 70
    11
 71
     3
 72
    50
 73
    46
 74
     0
 42
0.0000000001
 43
0.0000000001
 40
0.0
 40
0.0
 40
0.0
 40
0.0
 40
1.0
 40
1.0
 40
1.0
 40
2.0
 40
2.0
 40
2.0
 40
3.0
 40
3.0
 40
3.0
 40
4.0
 40
4.0
 40
4.0
 40
5.0
 40
5.0
 40
5.0
 40
6.0
 40
6.0
 40
6.0
 40
7.0
 40
7.0
 40
7.0
 40
8.0
 40
8.0
 40
8.0
 40
9.0
 40
9.0
 40
9.0
 40
10.0
 40
10.0
 40
10.0
 40
11.0
 40
11.0
 40
11.0
 40
12.0
 40
12.0
 40
12.0
 40
13.0
 40
13.0
 40
13.0
 40
14.0
 40
14.0
 40
14.0
 40
15.0
 40
15.0
 40
15.0
 40
15.0
 10
18.8134765625
 20
-301.5859375
 30
0.0
 10
18.2734375
 20
-300.7890625
 30
0.0
 10
17.6435546875
 20
-299.8076171875
 30
0.0
 10
17.6435546875
 20
-297.69140625
 30
0.0
 10
17.6435546875
 20
-294.77734375
 30
0.0
 10
19.623046875
 20
-291.0966796875
 30
0.0
 10
24.51318359375
 20
-291.0966796875
 30
0.0
 10
27.4228515625
 20
-291.0966796875
 30
0.0
 10
32.16259765625
 20
-292.599609375
 30
0.0
 10
32.16259765625
 20
-299.009765625
 30
0.0
 10
32.16259765625
 20
-302.4140625
 30
0.0
 10
30.1826171875
 20
-305.8798828125
 30
0.0
 10
25.89306640625
 20
-306.0947265625
 30
0.0
 10
25.89306640625
 20
-306.0947265625
 30
0.0
 10
25.89306640625
 20
-301.80078125
 30
0.0
 10
25.89306640625
 20
-301.80078125
 30
0.0
 10
27.6328125
 20
-301.6171875
 30
0.0
 10
28.802734375
 20
-300.666015625
 30
0.0
 10
28.802734375
 20
-298.7646484375
 30
0.0
 10
28.802734375
 20
-296.7099609375
 30
0.0
 10
27.0927734375
 20
-295.513671875
 30
0.0
 10
24.81298828125
 20
-295.513671875
 30
0.0
 10
22.92333984375
 20
-295.513671875
 30
0.0
 10
21.00341796875
 20
-296.43359375
 30
0.0
 10
21.00341796875
 20
-298.703125
 30
0.0
 10
21.00341796875
 20
-299.2861328125
 30
0.0
 10
21.033203125
 20
-300.7578125
 30
0.0
 10
22.533203125
 20
-301.5859375
 30
0.0
 10
22.533203125
 20
-301.5859375
 30
0.0
 10
22.35302734375
 20
-305.419921875
 30
0.0
 10
22.35302734375
 20
-305.419921875
 30
0.0
 10
22.35302734375
 20
-305.419921875
 30
0.0
 10
10.65380859375
 20
-303.9169921875
 30
0.0
 10
10.65380859375
 20
-303.9169921875
 30
0.0
 10
10.65380859375
 20
-303.9169921875
 30
0.0
 10
10.65380859375
 20
-291.9560546875
 30
0.0
 10
10.65380859375
 20
-291.9560546875
 30
0.0
 10
10.65380859375
 20
-291.9560546875
 30
0.0
 10
14.193359375
 20
-291.9560546875
 30
0.0
 10
14.193359375
 20
-291.9560546875
 30
0.0
 10
14.193359375
 20
-291.9560546875
 30
0.0
 10
14.193359375
 20
-300.8193359375
 30
0.0
 10
14.193359375
 20
-300.8193359375
 30
0.0
 10
14.193359375
 20
-300.8193359375
 30
0.0
 10
18.8134765625
 20
-301.5859375
 30
0.0
 10
18.8134765625
 20
-301.5859375
 30
0.0
  0
HATCH
  5
DA
330
D3
100
AcDbEntity
  8
Text Kopie
 62
   250
420
  1842203
100
AcDbHatch
 10
0.0
 20
0.0
 30
0.0
210
0.0
220
0.0
230
1.0
  2
SOLID
 70
     1
 71
     0
 91
        1
 92
        1
 93
        1
 72
     4
 94
        3
 73
     0
 74
     1
 95
       50
 96
       46
 40
0.0
 40
0.0
 40
0.0
 40
0.0
 40
1.0
 40
1.0
 40
1.0
 40
2.0
 40
2.0
 40
2.0
 40
3.0
 40
3.0
 40
3.0
 40
4.0
 40
4.0
 40
4.0
 40
5.0
 40
5.0
 40
5.0
 40
6.0
 40
6.0
 40
6.0
 40
7.0
 40
7.0
 40
7.0
 40
8.0
 40
8.0
 40
8.0
 40
9.0
 40
9.0
 40
9.0
 40
10.0
 40
10.0
 40
10.0
 40
11.0
 40
11.0
 40
11.0
 40
12.0
 40
12.0
 40
12.0
 40
13.0
 40
13.0
 40
13.0
 40
14.0
 40
14.0
 40
14.0
 40
15.0
 40
15.0
 40
15.0
 40
15.0
 10
18.8134765625
 20
-301.5859375
 10
18.2734375
 20
-300.7890625
 10
17.6435546875
 20
-299.8076171875
 10
17.6435546875
 20
-297.69140625
 10
17.6435546875
 20
-294.77734375
 10
19.623046875
 20
-291.0966796875
 10
24.51318359375
 20
-291.0966796875
 10
27.4228515625
 20
-291.0966796875
 10
32.16259765625
 20
-292.599609375
 10
32.16259765625
 20
-299.009765625
 10
32.16259765625
 20
-302.4140625
 10
30.1826171875
 20
-305.8798828125
 10
25.89306640625
 20
-306.0947265625
 10
25.89306640625
 20
-306.0947265625
 10
25.89306640625
 20
-301.80078125
 10
25.89306640625
 20
-301.80078125
 10
27.6328125
 20
-301.6171875
 10
28.802734375
 20
-300.666015625
 10
28.802734375
 20
-298.7646484375
 10
28.802734375
 20
-296.7099609375
 10
27.0927734375
 20
-295.513671875
 10
24.81298828125
 20
-295.513671875
 10
22.92333984375
 20
-295.513671875
 10
21.00341796875
 20
-296.43359375
 10
21.00341796875
 20
-298.703125
 10
21.00341796875
 20
-299.2861328125
 10
21.033203125
 20
-300.7578125
 10
22.533203125
 20
-301.5859375
 10
22.533203125
 20
-301.5859375
 10
22.35302734375
 20
-305.419921875
 10
22.35302734375
 20
-305.419921875
 10
22.35302734375
 20
-305.419921875
 10
10.65380859375
 20
-303.9169921875
 10
10.65380859375
 20
-303.9169921875
 10
10.65380859375
 20
-303.9169921875
 10
10.65380859375
 20
-291.9560546875
 10
10.65380859375
 20
-291.9560546875
 10
10.65380859375
 20
-291.9560546875
 10
14.193359375
 20
-291.9560546875
 10
14.193359375
 20
-291.9560546875
 10
14.193359375
 20
-291.9560546875
 10
14.193359375
 20
-300.8193359375
 10
14.193359375
 20
-300.8193359375
 10
14.193359375
 20
-300.8193359375
 10
18.8134765625
 20
-301.5859375
 10
18.8134765625
 20
-301.5859375
 97
        0
 75
     2
 76
     1
 98
        0
  0
SPLINE
  5
DB
330
D3
100
AcDbEntity
  8
Text Kopie
370
     0
100
AcDbSpline
210
0.0
220
0.0
230
1.0
 70
    11
 71
     3
 72
    17
 73
    13
 74
     0
 42
0.0000000001
 43
0.0000000001
 40
0.0
 40
0.0
 40
0.0
 40
0.0
 40
1.0
 40
1.0
 40
1.0
 40
2.0
 40
2.0
 40
2.0
 40
3.0
 40
3.0
 40
3.0
 40
4.0
 40
4.0
 40
4.0
 40
4.0
 10
10.29345703125
 20
-281.3447265625
 30
0.0
 10
10.29345703125
 20
-276.22265625
 30
0.0
 10
13.74365234375
 20
-273.7998046875
 30
0.0
 10
21.21337890625
 20
-273.7998046875
 30
0.0
 10
28.68310546875
 20
-273.7998046875
 30
0.0
 10
32.16259765625
 20
-276.22265625
 30
0.0
 10
32.16259765625
 20
-281.3447265625
 30
0.0
 10
32.16259765625
 20
-286.466796875
 30
0.0
 10
28.68310546875
 20
-288.8896484375
 30
0.0
 10
21.21337890625
 20
-288.8896484375
 30
0.0
 10
13.74365234375
 20
-288.8896484375
 30
0.0
 10
10.29345703125
 20
-286.466796875
 30
0.0
 10
10.29345703125
 20
-281.3447265625
 30
0.0
  0
SPLINE
  5
DC
330
D3
100
AcDbEntity
  8
Text Kopie
370
     0
100
AcDbSpline
210
0.0
220
0.0
230
1.0
 70
    11
 71
     3
 72
    17
 73
    13
 74
     0
 42
0.0000000001
 43
0.0000000001
 40
0.0
 40
0.0
 40
0.0
 40
0.0
 40
1.0
 40
1.0
 40
1.0
 40
2.0
 40
2.0
 40
2.0
 40
3.0
 40
3.0
 40
3.0
 40
4.0
 40
4.0
 40
4.0
 40
4.0
 10
28.802734375
 20
-281.3447265625
 30
0.0
 10
28.802734375
 20
-278.89111328125
 30
0.0
 10
26.703125
 20
-278.21630859375
 30
0.0
 10
21.21337890625
 20
-278.21630859375
 30
0.0
 10
15.7236328125
 20
-278.21630859375
 30
0.0
 10
13.6533203125
 20
-278.89111328125
 30
0.0
 10
13.6533203125
 20
-281.3447265625
 30
0.0
 10
13.6533203125
 20
-283.79833984375
 30
0.0
 10
15.7236328125
 20
-284.47314453125
 30
0.0
 10
21.21337890625
 20
-284.47314453125
 30
0.0
 10
26.703125
 20
-284.47314453125
 30
0.0
 10
28.802734375
 20
-283.79833984375
 30
0.0
 10
28.802734375
 20
-281.3447265625
 30
0.0
  0
HATCH
  5
DD
330
D3
100
AcDbEntity
  8
Text Kopie
 62
   250
420
  1842203
100
AcDbHatch
 10
0.0
 20
0.0
 30
0.0
210
0.0
220
0.0
230
1.0
  2
SOLID
 70
     1
 71
     0
 91
        2
 92
        1
 93
        1
 72
     4
 94
        3
 73
     0
 74
     1
 95
       17
 96
       13
 40
0.0
 40
0.0
 40
0.0
 40
0.0
 40
1.0
 40
1.0
 40
1.0
 40
2.0
 40
2.0
 40
2.0
 40
3.0
 40
3.0
 40
3.0
 40
4.0
 40
4.0
 40
4.0
 40
4.0
 10
10.29345703125
 20
-281.3447265625
 10
10.29345703125
 20
-276.22265625
 10
13.74365234375
 20
-273.7998046875
 10
21.21337890625
 20
-273.7998046875
 10
28.68310546875
 20
-273.7998046875
 10
32.16259765625
 20
-276.22265625
 10
32.16259765625
 20
-281.3447265625
 10
32.16259765625
 20
-286.466796875
 10
28.68310546875
 20
-288.8896484375
 10
21.21337890625
 20
-288.8896484375
 10
13.74365234375
 20
-288.8896484375
 10
10.29345703125
 20
-286.466796875
 10
10.29345703125
 20
-281.3447265625
 97
        0
 92
        1
 93
        1
 72
     4
 94
        3
 73
     0
 74
     1
 95
       17
 96
       13
 40
0.0
 40
0.0
 40
0.0
 40
0.0
 40
1.0
 40
1.0
 40
1.0
 40
2.0
 40
2.0
 40
2.0
 40
3.0
 40
3.0
 40
3.0
 40
4.0
 40
4.0
 40
4.0
 40
4.0
 10
28.802734375
 20
-281.3447265625
 10
28.802734375
 20
-278.89111328125
 10
26.703125
 20
-278.21630859375
 10
21.21337890625
 20
-278.21630859375
 10
15.7236328125
 20
-278.21630859375
 10
13.6533203125
 20
-278.89111328125
 10
13.6533203125
 20
-281.3447265625
 10
13.6533203125
 20
-283.79833984375
 10
15.7236328125
 20
-284.47314453125
 10
21.21337890625
 20
-284.47314453125
 10
26.703125
 20
-284.47314453125
 10
28.802734375
 20
-283.79833984375
 10
28.802734375
 20
-281.3447265625
 97
        0
 75
     2
 76
     1
 98
        0
  0
ENDBLK
  5
D6
330
D3
100
AcDbEntity
  8
0
100
AcDbBlockEnd
  0
BLOCK
  5
E0
330
DE
100
AcDbEntity
  8
0
100
AcDbBlockBegin
  2
block 7
 70
     0
 71
     0
 10
0.0
 20
0.0
 30
0.0
  3
block 7
  1

  0
SPLINE
  5
E2
330
DE
100
AcDbEntity
  8
Text Kopie
370
     0
100
AcDbSpline
210
0.0
220
0.0
230
1.0
 70
    11
 71
     3
 72
    59
 73
    55
 74
     0
 42
0.0000000001
 43
0.0000000001
 40
0.0
 40
0.0
 40
0.0
 40
0.0
 40
1.0
 40
1.0
 40
1.0
 40
2.0
 40
2.0
 40
2.0
 40
3.0
 40
3.0
 40
3.0
 40
4.0
 40
4.0
 40
4.0
 40
5.0
 40
5.0
 40
5.0
 40
6.0
 40
6.0
 40
6.0
 40
7.0
 40
7.0
 40
7.0
 40
8.0
 40
8.0
 40
8.0
 40
9.0
 40
9.0
 40
9.0
 40
10.0
 40
10.0
 40
10.0
 40
11.0
 40
11.0
 40
11.0
 40
12.0
 40
12.0
 40
12.0
 40
13.0
 40
13.0
 40
13.0
 40
14.0
 40
14.0
 40
14.0
 40
15.0
 40
15.0
 40
15.0
 40
16.0
 40
16.0
 40
16.0
 40
17.0
 40
17.0
 40
17.0
 40
18.0
 40
18.0
 40
18.0
 40
18.0
 10
528.595703125
 20
-262.0205078125
 30
0.0
 10
528.595703125
 20
-262.0205078125
 30
0.0
 10
528.595703125
 20
-261.345703125
 30
0.0
 10
528.595703125
 20
-261.345703125
 30
0.0
 10
528.595703125
 20
-260.0576171875
 30
0.0
 10
528.4755859375
 20
-257.69580078125
 30
0.0
 10
525.7158203125
 20
-257.69580078125
 30
0.0
 10
524.935546875
 20
-257.69580078125
 30
0.0
 10
522.9853515625
 20
-258.06396484375
 30
0.0
 10
522.9853515625
 20
-260.42578125
 30
0.0
 10
522.9853515625
 20
-263.3701171875
 30
0.0
 10
525.7158203125
 20
-263.3701171875
 30
0.0
 10
526.4658203125
 20
-263.3701171875
 30
0.0
 10
526.4658203125
 20
-263.3701171875
 30
0.0
 10
526.4658203125
 20
-267.35693359375
 30
0.0
 10
526.4658203125
 20
-267.35693359375
 30
0.0
 10
522.4755859375
 20
-267.35693359375
 30
0.0
 10
519.6259765625
 20
-265.056640625
 30
0.0
 10
519.6259765625
 20
-260.1494140625
 30
0.0
 10
519.6259765625
 20
-257.23583984375
 30
0.0
 10
521.0654296875
 20
-253.40234375
 30
0.0
 10
525.5654296875
 20
-253.40234375
 30
0.0
 10
527.7255859375
 20
-253.40234375
 30
0.0
 10
529.0751953125
 20
-254.7822265625
 30
0.0
 10
529.615234375
 20
-256.00927734375
 30
0.0
 10
529.615234375
 20
-256.00927734375
 30
0.0
 10
529.6748046875
 20
-256.00927734375
 30
0.0
 10
529.6748046875
 20
-256.00927734375
 30
0.0
 10
529.8857421875
 20
-255.2421875
 30
0.0
 10
530.9951171875
 20
-252.7275390625
 30
0.0
 10
534.625
 20
-252.7275390625
 30
0.0
 10
538.64453125
 20
-252.7275390625
 30
0.0
 10
541.4951171875
 20
-255.763671875
 30
0.0
 10
541.4951171875
 20
-260.1494140625
 30
0.0
 10
541.4951171875
 20
-262.20458984375
 30
0.0
 10
541.044921875
 20
-267.72509765625
 30
0.0
 10
534.384765625
 20
-267.72509765625
 30
0.0
 10
534.384765625
 20
-267.72509765625
 30
0.0
 10
534.384765625
 20
-263.5234375
 30
0.0
 10
534.384765625
 20
-263.5234375
 30
0.0
 10
534.384765625
 20
-263.5234375
 30
0.0
 10
534.4150390625
 20
-263.55419921875
 30
0.0
 10
534.4150390625
 20
-263.55419921875
 30
0.0
 10
535.5546875
 20
-263.55419921875
 30
0.0
 10
538.134765625
 20
-263.2470703125
 30
0.0
 10
538.134765625
 20
-260.3642578125
 30
0.0
 10
538.134765625
 20
-258.64697265625
 30
0.0
 10
536.9951171875
 20
-257.14404296875
 30
0.0
 10
534.625
 20
-257.14404296875
 30
0.0
 10
531.71484375
 20
-257.14404296875
 30
0.0
 10
531.5947265625
 20
-260.02685546875
 30
0.0
 10
531.5947265625
 20
-262.0205078125
 30
0.0
 10
531.5947265625
 20
-262.0205078125
 30
0.0
 10
528.595703125
 20
-262.0205078125
 30
0.0
 10
528.595703125
 20
-262.0205078125
 30
0.0
  0
HATCH
  5
E3
330
DE
100
AcDbEntity
  8
Text Kopie
 62
   250
420
  1842203
100
AcDbHatch
 10
0.0
 20
0.0
 30
0.0
210
0.0
220
0.0
230
1.0
  2
SOLID
 70
     1
 71
     0
 91
        1
 92
        1
 93
        1
 72
     4
 94
        3
 73
     0
 74
     1
 95
       59
 96
       55
 40
0.0
 40
0.0
 40
0.0
 40
0.0
 40
1.0
 40
1.0
 40
1.0
 40
2.0
 40
2.0
 40
2.0
 40
3.0
 40
3.0
 40
3.0
 40
4.0
 40
4.0
 40
4.0
 40
5.0
 40
5.0
 40
5.0
 40
6.0
 40
6.0
 40
6.0
 40
7.0
 40
7.0
 40
7.0
 40
8.0
 40
8.0
 40
8.0
 40
9.0
 40
9.0
 40
9.0
 40
10.0
 40
10.0
 40
10.0
 40
11.0
 40
11.0
 40
11.0
 40
12.0
 40
12.0
 40
12.0
 40
13.0
 40
13.0
 40
13.0
 40
14.0
 40
14.0
 40
14.0
 40
15.0
 40
15.0
 40
15.0
 40
16.0
 40
16.0
 40
16.0
 40
17.0
 40
17.0
 40
17.0
 40
18.0
 40
18.0
 40
18.0
 40
18.0
 10
528.595703125
 20
-262.0205078125
 10
528.595703125
 20
-262.0205078125
 10
528.595703125
 20
-261.345703125
 10
528.595703125
 20
-261.345703125
 10
528.595703125
 20
-260.0576171875
 10
528.4755859375
 20
-257.69580078125
 10
525.7158203125
 20
-257.69580078125
 10
524.935546875
 20
-257.69580078125
 10
522.9853515625
 20
-258.06396484375
 10
522.9853515625
 20
-260.42578125
 10
522.9853515625
 20
-263.3701171875
 10
525.7158203125
 20
-263.3701171875
 10
526.4658203125
 20
-263.3701171875
 10
526.4658203125
 20
-263.3701171875
 10
526.4658203125
 20
-267.35693359375
 10
526.4658203125
 20
-267.35693359375
 10
522.4755859375
 20
-267.35693359375
 10
519.6259765625
 20
-265.056640625
 10
519.6259765625
 20
-260.1494140625
 10
519.6259765625
 20
-257.23583984375
 10
521.0654296875
 20
-253.40234375
 10
525.5654296875
 20
-253.40234375
 10
527.7255859375
 20
-253.40234375
 10
529.0751953125
 20
-254.7822265625
 10
529.615234375
 20
-256.00927734375
 10
529.615234375
 20
-256.00927734375
 10
529.6748046875
 20
-256.00927734375
 10
529.6748046875
 20
-256.00927734375
 10
529.8857421875
 20
-255.2421875
 10
530.9951171875
 20
-252.7275390625
 10
534.625
 20
-252.7275390625
 10
538.64453125
 20
-252.7275390625
 10
541.4951171875
 20
-255.763671875
 10
541.4951171875
 20
-260.1494140625
 10
541.4951171875
 20
-262.20458984375
 10
541.044921875
 20
-267.72509765625
 10
534.384765625
 20
-267.72509765625
 10
534.384765625
 20
-267.72509765625
 10
534.384765625
 20
-263.5234375
 10
534.384765625
 20
-263.5234375
 10
534.384765625
 20
-263.5234375
 10
534.4150390625
 20
-263.55419921875
 10
534.4150390625
 20
-263.55419921875
 10
535.5546875
 20
-263.55419921875
 10
538.134765625
 20
-263.2470703125
 10
538.134765625
 20
-260.3642578125
 10
538.134765625
 20
-258.64697265625
 10
536.9951171875
 20
-257.14404296875
 10
534.625
 20
-257.14404296875
 10
531.71484375
 20
-257.14404296875
 10
531.5947265625
 20
-260.02685546875
 10
531.5947265625
 20
-262.0205078125
 10
531.5947265625
 20
-262.0205078125
 10
528.595703125
 20
-262.0205078125
 10
528.595703125
 20
-262.0205078125
 97
        0
 75
     2
 76
     1
 98
        0
  0
SPLINE
  5
E4
330
DE
100
AcDbEntity
  8
Text Kopie
370
     0
100
AcDbSpline
210
0.0
220
0.0
230
1.0
 70
    11
 71
     3
 72
    29
 73
    25
 74
     0
 42
0.0000000001
 43
0.0000000001
 40
0.0
 40
0.0
 40
0.0
 40
0.0
 40
1.0
 40
1.0
 40
1.0
 40
2.0
 40
2.0
 40
2.0
 40
3.0
 40
3.0
 40
3.0
 40
4.0
 40
4.0
 40
4.0
 40
5.0
 40
5.0
 40
5.0
 40
6.0
 40
6.0
 40
6.0
 40
7.0
 40
7.0
 40
7.0
 40
8.0
 40
8.0
 40
8.0
 40
8.0
 10
523.3154296875
 20
-249.3857421875
 30
0.0
 10
523.3154296875
 20
-249.3857421875
 30
0.0
 10
523.3154296875
 20
-248.7724609375
 30
0.0
 10
523.3154296875
 20
-248.7724609375
 30
0.0
 10
523.3154296875
 20
-244.6318359375
 30
0.0
 10
521.2158203125
 20
-243.52783203125
 30
0.0
 10
519.6259765625
 20
-243.435546875
 30
0.0
 10
519.6259765625
 20
-243.435546875
 30
0.0
 10
519.6259765625
 20
-239.90869140625
 30
0.0
 10
519.6259765625
 20
-239.90869140625
 30
0.0
 10
519.6259765625
 20
-239.90869140625
 30
0.0
 10
540.9248046875
 20
-239.90869140625
 30
0.0
 10
540.9248046875
 20
-239.90869140625
 30
0.0
 10
540.9248046875
 20
-239.90869140625
 30
0.0
 10
540.9248046875
 20
-244.20263671875
 30
0.0
 10
540.9248046875
 20
-244.20263671875
 30
0.0
 10
540.9248046875
 20
-244.20263671875
 30
0.0
 10
526.255859375
 20
-244.20263671875
 30
0.0
 10
526.255859375
 20
-244.20263671875
 30
0.0
 10
526.255859375
 20
-244.20263671875
 30
0.0
 10
526.255859375
 20
-249.3857421875
 30
0.0
 10
526.255859375
 20
-249.3857421875
 30
0.0
 10
526.255859375
 20
-249.3857421875
 30
0.0
 10
523.3154296875
 20
-249.3857421875
 30
0.0
 10
523.3154296875
 20
-249.3857421875
 30
0.0
  0
HATCH
  5
E5
330
DE
100
AcDbEntity
  8
Text Kopie
 62
   250
420
  1842203
100
AcDbHatch
 10
0.0
 20
0.0
 30
0.0
210
0.0
220
0.0
230
1.0
  2
SOLID
 70
     1
 71
     0
 91
        1
 92
        1
 93
        1
 72
     4
 94
        3
 73
     0
 74
     1
 95
       29
 96
       25
 40
0.0
 40
0.0
 40
0.0
 40
0.0
 40
1.0
 40
1.0
 40
1.0
 40
2.0
 40
2.0
 40
2.0
 40
3.0
 40
3.0
 40
3.0
 40
4.0
 40
4.0
 40
4.0
 40
5.0
 40
5.0
 40
5.0
 40
6.0
 40
6.0
 40
6.0
 40
7.0
 40
7.0
 40
7.0
 40
8.0
 40
8.0
 40
8.0
 40
8.0
 10
523.3154296875
 20
-249.3857421875
 10
523.3154296875
 20
-249.3857421875
 10
523.3154296875
 20
-248.7724609375
 10
523.3154296875
 20
-248.7724609375
 10
523.3154296875
 20
-244.6318359375
 10
521.2158203125
 20
-243.52783203125
 10
519.6259765625
 20
-243.435546875
 10
519.6259765625
 20
-243.435546875
 10
519.6259765625
 20
-239.90869140625
 10
519.6259765625
 20
-239.90869140625
 10
519.6259765625
 20
-239.90869140625
 10
540.9248046875
 20
-239.90869140625
 10
540.9248046875
 20
-239.90869140625
 10
540.9248046875
 20
-239.90869140625
 10
540.9248046875
 20
-244.20263671875
 10
540.9248046875
 20
-244.20263671875
 10
540.9248046875
 20
-244.20263671875
 10
526.255859375
 20
-244.20263671875
 10
526.255859375
 20
-244.20263671875
 10
526.255859375
 20
-244.20263671875
 10
526.255859375
 20
-249.3857421875
 10
526.255859375
 20
-249.3857421875
 10
526.255859375
 20
-249.3857421875
 10
523.3154296875
 20
-249.3857421875
 10
523.3154296875
 20
-249.3857421875
 97
        0
 75
     2
 76
     1
 98
        0
  0
SPLINE
  5
E6
330
DE
100
AcDbEntity
  8
Text Kopie
370
     0
100
AcDbSpline
210
0.0
220
0.0
230
1.0
 70
    11
 71
     3
 72
    17
 73
    13
 74
     0
 42
0.0000000001
 43
0.0000000001
 40
0.0
 40
0.0
 40
0.0
 40
0.0
 40
1.0
 40
1.0
 40
1.0
 40
2.0
 40
2.0
 40
2.0
 40
3.0
 40
3.0
 40
3.0
 40
4.0
 40
4.0
 40
4.0
 40
4.0
 10
519.6259765625
 20
-225.9248046875
 30
0.0
 10
519.6259765625
 20
-220.802734375
 30
0.0
 10
523.0751953125
 20
-218.3798828125
 30
0.0
 10
530.544921875
 20
-218.3798828125
 30
0.0
 10
538.0146484375
 20
-218.3798828125
 30
0.0
 10
541.4951171875
 20
-220.802734375
 30
0.0
 10
541.4951171875
 20
-225.9248046875
 30
0.0
 10
541.4951171875
 20
-231.046875
 30
0.0
 10
538.0146484375
 20
-233.4697265625
 30
0.0
 10
530.544921875
 20
-233.4697265625
 30
0.0
 10
523.0751953125
 20
-233.4697265625
 30
0.0
 10
519.6259765625
 20
-231.046875
 30
0.0
 10
519.6259765625
 20
-225.9248046875
 30
0.0
  0
SPLINE
  5
E7
330
DE
100
AcDbEntity
  8
Text Kopie
370
     0
100
AcDbSpline
210
0.0
220
0.0
230
1.0
 70
    11
 71
     3
 72
    17
 73
    13
 74
     0
 42
0.0000000001
 43
0.0000000001
 40
0.0
 40
0.0
 40
0.0
 40
0.0
 40
1.0
 40
1.0
 40
1.0
 40
2.0
 40
2.0
 40
2.0
 40
3.0
 40
3.0
 40
3.0
 40
4.0
 40
4.0
 40
4.0
 40
4.0
 10
538.134765625
 20
-225.9248046875
 30
0.0
 10
538.134765625
 20
-223.47119140625
 30
0.0
 10
536.03515625
 20
-222.79638671875
 30
0.0
 10
530.544921875
 20
-222.79638671875
 30
0.0
 10
525.0556640625
 20
-222.79638671875
 30
0.0
 10
522.9853515625
 20
-223.47119140625
 30
0.0
 10
522.9853515625
 20
-225.9248046875
 30
0.0
 10
522.9853515625
 20
-228.37841796875
 30
0.0
 10
525.0556640625
 20
-229.05322265625
 30
0.0
 10
530.544921875
 20
-229.05322265625
 30
0.0
 10
536.03515625
 20
-229.05322265625
 30
0.0
 10
538.134765625
 20
-228.37841796875
 30
0.0
 10
538.134765625
 20
-225.9248046875
 30
0.0
  0
HATCH
  5
E8
330
DE
100
AcDbEntity
  8
Text Kopie
 62
   250
420
  1842203
100
AcDbHatch
 10
0.0
 20
0.0
 30
0.0
210
0.0
220
0.0
230
1.0
  2
SOLID
 70
     1
 71
     0
 91
        2
 92
        1
 93
        1
 72
     4
 94
        3
 73
     0
 74
     1
 95
       17
 96
       13
 40
0.0
 40
0.0
 40
0.0
 40
0.0
 40
1.0
 40
1.0
 40
1.0
 40
2.0
 40
2.0
 40
2.0
 40
3.0
 40
3.0
 40
3.0
 40
4.0
 40
4.0
 40
4.0
 40
4.0
 10
519.6259765625
 20
-225.9248046875
 10
519.6259765625
 20
-220.802734375
 10
523.0751953125
 20
-218.3798828125
 10
530.544921875
 20
-218.3798828125
 10
538.0146484375
 20
-218.3798828125
 10
541.4951171875
 20
-220.802734375
 10
541.4951171875
 20
-225.9248046875
 10
541.4951171875
 20
-231.046875
 10
538.0146484375
 20
-233.4697265625
 10
530.544921875
 20
-233.4697265625
 10
523.0751953125
 20
-233.4697265625
 10
519.6259765625
 20
-231.046875
 10
519.6259765625
 20
-225.9248046875
 97
        0
 92
        1
 93
        1
 72
     4
 94
        3
 73
     0
 74
     1
 95
       17
 96
       13
 40
0.0
 40
0.0
 40
0.0
 40
0.0
 40
1.0
 40
1.0
 40
1.0
 40
2.0
 40
2.0
 40
2.0
 40
3.0
 40
3.0
 40
3.0
 40
4.0
 40
4.0
 40
4.0
 40
4.0
 10
538.134765625
 20
-225.9248046875
 10
538.134765625
 20
-223.47119140625
 10
536.03515625
 20
-222.79638671875
 10
530.544921875
 20
-222.79638671875
 10
525.0556640625
 20
-222.79638671875
 10
522.9853515625
 20
-223.47119140625
 10
522.9853515625
 20
-225.9248046875
 10
522.9853515625
 20
-228.37841796875
 10
525.0556640625
 20
-229.05322265625
 10
530.544921875
 20
-229.05322265625
 10
536.03515625
 20
-229.05322265625
 10
538.134765625
 20
-228.37841796875
 10
538.134765625
 20
-225.9248046875
 97
        0
 75
     2
 76
     1
 98
        0
  0
ENDBLK
  5
E1
330
DE
100
AcDbEntity
  8
0
100
AcDbBlockEnd
  0
BLOCK
  5
EB
330
E9
100
AcDbEntity
  8
0
100
AcDbBlockBegin
  2
block 8
 70
     0
 71
     0
 10
0.0
 20
0.0
 30
0.0
  3
block 8
  1

  0
SPLINE
  5
ED
330
E9
100
AcDbEntity
  8
Text Kopie
370
     0
100
AcDbSpline
210
0.0
220
0.0
230
1.0
 70
    11
 71
     3
 72
    41
 73
    37
 74
     0
 42
0.0000000001
 43
0.0000000001
 40
0.0
 40
0.0
 40
0.0
 40
0.0
 40
1.0
 40
1.0
 40
1.0
 40
2.0
 40
2.0
 40
2.0
 40
3.0
 40
3.0
 40
3.0
 40
4.0
 40
4.0
 40
4.0
 40
5.0
 40
5.0
 40
5.0
 40
6.0
 40
6.0
 40
6.0
 40
7.0
 40
7.0
 40
7.0
 40
8.0
 40
8.0
 40
8.0
 40
9.0
 40
9.0
 40
9.0
 40
10.0
 40
10.0
 40
10.0
 40
11.0
 40
11.0
 40
11.0
 40
12.0
 40
12.0
 40
12.0
 40
12.0
 10
453.5439453125
 20
-167.4580078125
 30
0.0
 10
453.5439453125
 20
-160.5283203125
 30
0.0
 10
458.7265625
 20
-159.92822265625
 30
0.0
 10
460.6591796875
 20
-159.92822265625
 30
0.0
 10
464.830078125
 20
-159.92822265625
 30
0.0
 10
468.142578125
 20
-162.328125
 30
0.0
 10
468.142578125
 20
-166.64794921875
 30
0.0
 10
468.142578125
 20
-170.30810546875
 30
0.0
 10
465.7197265625
 20
-172.16796875
 30
0.0
 10
463.603515625
 20
-173.57763671875
 30
0.0
 10
460.720703125
 20
-175.5576171875
 30
0.0
 10
459.2177734375
 20
-176.517578125
 30
0.0
 10
458.7265625
 20
-177.5078125
 30
0.0
 10
458.7265625
 20
-177.5078125
 30
0.0
 10
468.173828125
 20
-177.5078125
 30
0.0
 10
468.173828125
 20
-177.5078125
 30
0.0
 10
468.173828125
 20
-177.5078125
 30
0.0
 10
468.173828125
 20
-181.2275390625
 30
0.0
 10
468.173828125
 20
-181.2275390625
 30
0.0
 10
468.173828125
 20
-181.2275390625
 30
0.0
 10
453.298828125
 20
-181.2275390625
 30
0.0
 10
453.298828125
 20
-181.2275390625
 30
0.0
 10
453.4521484375
 20
-178.73779296875
 30
0.0
 10
453.6357421875
 20
-176.1279296875
 30
0.0
 10
458.359375
 20
-172.76806640625
 30
0.0
 10
462.28515625
 20
-169.97802734375
 30
0.0
 10
463.8486328125
 20
-168.89794921875
 30
0.0
 10
463.8486328125
 20
-166.498046875
 30
0.0
 10
463.8486328125
 20
-165.08837890625
 30
0.0
 10
462.9287109375
 20
-163.46826171875
 30
0.0
 10
460.84375
 20
-163.46826171875
 30
0.0
 10
457.837890625
 20
-163.46826171875
 30
0.0
 10
457.7451171875
 20
-165.89794921875
 30
0.0
 10
457.71484375
 20
-167.4580078125
 30
0.0
 10
457.71484375
 20
-167.4580078125
 30
0.0
 10
453.5439453125
 20
-167.4580078125
 30
0.0
 10
453.5439453125
 20
-167.4580078125
 30
0.0
  0
HATCH
  5
EE
330
E9
100
AcDbEntity
  8
Text Kopie
 62
   250
420
  1842203
100
AcDbHatch
 10
0.0
 20
0.0
 30
0.0
210
0.0
220
0.0
230
1.0
  2
SOLID
 70
     1
 71
     0
 91
        1
 92
        1
 93
        1
 72
     4
 94
        3
 73
     0
 74
     1
 95
       41
 96
       37
 40
0.0
 40
0.0
 40
0.0
 40
0.0
 40
1.0
 40
1.0
 40
1.0
 40
2.0
 40
2.0
 40
2.0
 40
3.0
 40
3.0
 40
3.0
 40
4.0
 40
4.0
 40
4.0
 40
5.0
 40
5.0
 40
5.0
 40
6.0
 40
6.0
 40
6.0
 40
7.0
 40
7.0
 40
7.0
 40
8.0
 40
8.0
 40
8.0
 40
9.0
 40
9.0
 40
9.0
 40
10.0
 40
10.0
 40
10.0
 40
11.0
 40
11.0
 40
11.0
 40
12.0
 40
12.0
 40
12.0
 40
12.0
 10
453.5439453125
 20
-167.4580078125
 10
453.5439453125
 20
-160.5283203125
 10
458.7265625
 20
-159.92822265625
 10
460.6591796875
 20
-159.92822265625
 10
464.830078125
 20
-159.92822265625
 10
468.142578125
 20
-162.328125
 10
468.142578125
 20
-166.64794921875
 10
468.142578125
 20
-170.30810546875
 10
465.7197265625
 20
-172.16796875
 10
463.603515625
 20
-173.57763671875
 10
460.720703125
 20
-175.5576171875
 10
459.2177734375
 20
-176.517578125
 10
458.7265625
 20
-177.5078125
 10
458.7265625
 20
-177.5078125
 10
468.173828125
 20
-177.5078125
 10
468.173828125
 20
-177.5078125
 10
468.173828125
 20
-177.5078125
 10
468.173828125
 20
-181.2275390625
 10
468.173828125
 20
-181.2275390625
 10
468.173828125
 20
-181.2275390625
 10
453.298828125
 20
-181.2275390625
 10
453.298828125
 20
-181.2275390625
 10
453.4521484375
 20
-178.73779296875
 10
453.6357421875
 20
-176.1279296875
 10
458.359375
 20
-172.76806640625
 10
462.28515625
 20
-169.97802734375
 10
463.8486328125
 20
-168.89794921875
 10
463.8486328125
 20
-166.498046875
 10
463.8486328125
 20
-165.08837890625
 10
462.9287109375
 20
-163.46826171875
 10
460.84375
 20
-163.46826171875
 10
457.837890625
 20
-163.46826171875
 10
457.7451171875
 20
-165.89794921875
 10
457.71484375
 20
-167.4580078125
 10
457.71484375
 20
-167.4580078125
 10
453.5439453125
 20
-167.4580078125
 10
453.5439453125
 20
-167.4580078125
 97
        0
 75
     2
 76
     1
 98
        0
  0
SPLINE
  5
EF
330
E9
100
AcDbEntity
  8
Text Kopie
370
     0
100
AcDbSpline
210
0.0
220
0.0
230
1.0
 70
    11
 71
     3
 72
    29
 73
    25
 74
     0
 42
0.0000000001
 43
0.0000000001
 40
0.0
 40
0.0
 40
0.0
 40
0.0
 40
1.0
 40
1.0
 40
1.0
 40
2.0
 40
2.0
 40
2.0
 40
3.0
 40
3.0
 40
3.0
 40
4.0
 40
4.0
 40
4.0
 40
5.0
 40
5.0
 40
5.0
 40
6.0
 40
6.0
 40
6.0
 40
7.0
 40
7.0
 40
7.0
 40
8.0
 40
8.0
 40
8.0
 40
8.0
 10
478.078125
 20
-181.79736328125
 30
0.0
 10
472.4658203125
 20
-181.79736328125
 30
0.0
 10
470.533203125
 20
-178.2275390625
 30
0.0
 10
470.533203125
 20
-175.31787109375
 30
0.0
 10
470.533203125
 20
-174.23779296875
 30
0.0
 10
470.533203125
 20
-171.41796875
 30
0.0
 10
473.845703125
 20
-169.91796875
 30
0.0
 10
472.1279296875
 20
-169.078125
 30
0.0
 10
471.2080078125
 20
-167.72802734375
 30
0.0
 10
471.2080078125
 20
-165.748046875
 30
0.0
 10
471.2080078125
 20
-162.1181640625
 30
0.0
 10
474.1826171875
 20
-159.92822265625
 30
0.0
 10
477.986328125
 20
-159.92822265625
 30
0.0
 10
482.494140625
 20
-159.92822265625
 30
0.0
 10
484.88671875
 20
-162.5380859375
 30
0.0
 10
484.88671875
 20
-165.47802734375
 30
0.0
 10
484.88671875
 20
-167.30810546875
 30
0.0
 10
484.1201171875
 20
-168.8681640625
 30
0.0
 10
482.3720703125
 20
-169.76806640625
 30
0.0
 10
484.45703125
 20
-170.7880859375
 30
0.0
 10
485.623046875
 20
-172.1376953125
 30
0.0
 10
485.623046875
 20
-174.89794921875
 30
0.0
 10
485.623046875
 20
-177.59765625
 30
0.0
 10
483.84375
 20
-181.79736328125
 30
0.0
 10
478.078125
 20
-181.79736328125
 30
0.0
  0
SPLINE
  5
F0
330
E9
100
AcDbEntity
  8
Text Kopie
370
     0
100
AcDbSpline
210
0.0
220
0.0
230
1.0
 70
    11
 71
     3
 72
    17
 73
    13
 74
     0
 42
0.0000000001
 43
0.0000000001
 40
0.0
 40
0.0
 40
0.0
 40
0.0
 40
1.0
 40
1.0
 40
1.0
 40
2.0
 40
2.0
 40
2.0
 40
3.0
 40
3.0
 40
3.0
 40
4.0
 40
4.0
 40
4.0
 40
4.0
 10
478.0166015625
 20
-171.748046875
 30
0.0
 10
476.4521484375
 20
-171.748046875
 30
0.0
 10
474.94921875
 20
-172.73779296875
 30
0.0
 10
474.94921875
 20
-175.0478515625
 30
0.0
 10
474.94921875
 20
-177.087890625
 30
0.0
 10
476.1455078125
 20
-178.4375
 30
0.0
 10
478.1083984375
 20
-178.4375
 30
0.0
 10
480.34765625
 20
-178.4375
 30
0.0
 10
481.2060546875
 20
-176.5478515625
 30
0.0
 10
481.2060546875
 20
-175.07763671875
 30
0.0
 10
481.2060546875
 20
-173.57763671875
 30
0.0
 10
480.4091796875
 20
-171.748046875
 30
0.0
 10
478.0166015625
 20
-171.748046875
 30
0.0
  0
SPLINE
  5
F1
330
E9
100
AcDbEntity
  8
Text Kopie
370
     0
100
AcDbSpline
210
0.0
220
0.0
230
1.0
 70
    11
 71
     3
 72
    17
 73
    13
 74
     0
 42
0.0000000001
 43
0.0000000001
 40
0.0
 40
0.0
 40
0.0
 40
0.0
 40
1.0
 40
1.0
 40
1.0
 40
2.0
 40
2.0
 40
2.0
 40
3.0
 40
3.0
 40
3.0
 40
4.0
 40
4.0
 40
4.0
 40
4.0
 10
480.77734375
 20
-165.92822265625
 30
0.0
 10
480.77734375
 20
-164.30810546875
 30
0.0
 10
479.642578125
 20
-163.2880859375
 30
0.0
 10
478.26171875
 20
-163.2880859375
 30
0.0
 10
476.330078125
 20
-163.2880859375
 30
0.0
 10
475.3173828125
 20
-164.3681640625
 30
0.0
 10
475.3173828125
 20
-165.92822265625
 30
0.0
 10
475.3173828125
 20
-167.18798828125
 30
0.0
 10
476.2685546875
 20
-168.56787109375
 30
0.0
 10
478.1083984375
 20
-168.56787109375
 30
0.0
 10
479.7958984375
 20
-168.56787109375
 30
0.0
 10
480.77734375
 20
-167.4580078125
 30
0.0
 10
480.77734375
 20
-165.92822265625
 30
0.0
  0
HATCH
  5
F2
330
E9
100
AcDbEntity
  8
Text Kopie
 62
   250
420
  1842203
100
AcDbHatch
 10
0.0
 20
0.0
 30
0.0
210
0.0
220
0.0
230
1.0
  2
SOLID
 70
     1
 71
     0
 91
        3
 92
        1
 93
        1
 72
     4
 94
        3
 73
     0
 74
     1
 95
       29
 96
       25
 40
0.0
 40
0.0
 40
0.0
 40
0.0
 40
1.0
 40
1.0
 40
1.0
 40
2.0
 40
2.0
 40
2.0
 40
3.0
 40
3.0
 40
3.0
 40
4.0
 40
4.0
 40
4.0
 40
5.0
 40
5.0
 40
5.0
 40
6.0
 40
6.0
 40
6.0
 40
7.0
 40
7.0
 40
7.0
 40
8.0
 40
8.0
 40
8.0
 40
8.0
 10
478.078125
 20
-181.79736328125
 10
472.4658203125
 20
-181.79736328125
 10
470.533203125
 20
-178.2275390625
 10
470.533203125
 20
-175.31787109375
 10
470.533203125
 20
-174.23779296875
 10
470.533203125
 20
-171.41796875
 10
473.845703125
 20
-169.91796875
 10
472.1279296875
 20
-169.078125
 10
471.2080078125
 20
-167.72802734375
 10
471.2080078125
 20
-165.748046875
 10
471.2080078125
 20
-162.1181640625
 10
474.1826171875
 20
-159.92822265625
 10
477.986328125
 20
-159.92822265625
 10
482.494140625
 20
-159.92822265625
 10
484.88671875
 20
-162.5380859375
 10
484.88671875
 20
-165.47802734375
 10
484.88671875
 20
-167.30810546875
 10
484.1201171875
 20
-168.8681640625
 10
482.3720703125
 20
-169.76806640625
 10
484.45703125
 20
-170.7880859375
 10
485.623046875
 20
-172.1376953125
 10
485.623046875
 20
-174.89794921875
 10
485.623046875
 20
-177.59765625
 10
483.84375
 20
-181.79736328125
 10
478.078125
 20
-181.79736328125
 97
        0
 92
        1
 93
        1
 72
     4
 94
        3
 73
     0
 74
     1
 95
       17
 96
       13
 40
0.0
 40
0.0
 40
0.0
 40
0.0
 40
1.0
 40
1.0
 40
1.0
 40
2.0
 40
2.0
 40
2.0
 40
3.0
 40
3.0
 40
3.0
 40
4.0
 40
4.0
 40
4.0
 40
4.0
 10
478.0166015625
 20
-171.748046875
 10
476.4521484375
 20
-171.748046875
 10
474.94921875
 20
-172.73779296875
 10
474.94921875
 20
-175.0478515625
 10
474.94921875
 20
-177.087890625
 10
476.1455078125
 20
-178.4375
 10
478.1083984375
 20
-178.4375
 10
480.34765625
 20
-178.4375
 10
481.2060546875
 20
-176.5478515625
 10
481.2060546875
 20
-175.07763671875
 10
481.2060546875
 20
-173.57763671875
 10
480.4091796875
 20
-171.748046875
 10
478.0166015625
 20
-171.748046875
 97
        0
 92
        1
 93
        1
 72
     4
 94
        3
 73
     0
 74
     1
 95
       17
 96
       13
 40
0.0
 40
0.0
 40
0.0
 40
0.0
 40
1.0
 40
1.0
 40
1.0
 40
2.0
 40
2.0
 40
2.0
 40
3.0
 40
3.0
 40
3.0
 40
4.0
 40
4.0
 40
4.0
 40
4.0
 10
480.77734375
 20
-165.92822265625
 10
480.77734375
 20
-164.30810546875
 10
479.642578125
 20
-163.2880859375
 10
478.26171875
 20
-163.2880859375
 10
476.330078125
 20
-163.2880859375
 10
475.3173828125
 20
-164.3681640625
 10
475.3173828125
 20
-165.92822265625
 10
475.3173828125
 20
-167.18798828125
 10
476.2685546875
 20
-168.56787109375
 10
478.1083984375
 20
-168.56787109375
 10
479.7958984375
 20
-168.56787109375
 10
480.77734375
 20
-167.4580078125
 10
480.77734375
 20
-165.92822265625
 97
        0
 75
     2
 76
     1
 98
        0
  0
SPLINE
  5
F3
330
E9
100
AcDbEntity
  8
Text Kopie
370
     0
100
AcDbSpline
210
0.0
220
0.0
230
1.0
 70
    11
 71
     3
 72
    17
 73
    13
 74
     0
 42
0.0000000001
 43
0.0000000001
 40
0.0
 40
0.0
 40
0.0
 40
0.0
 40
1.0
 40
1.0
 40
1.0
 40
2.0
 40
2.0
 40
2.0
 40
3.0
 40
3.0
 40
3.0
 40
4.0
 40
4.0
 40
4.0
 40
4.0
 10
495.1298828125
 20
-159.92822265625
 30
0.0
 10
500.251953125
 20
-159.92822265625
 30
0.0
 10
502.6748046875
 20
-163.37841796875
 30
0.0
 10
502.6748046875
 20
-170.84814453125
 30
0.0
 10
502.6748046875
 20
-178.31787109375
 30
0.0
 10
500.251953125
 20
-181.79736328125
 30
0.0
 10
495.1298828125
 20
-181.79736328125
 30
0.0
 10
490.0078125
 20
-181.79736328125
 30
0.0
 10
487.5849609375
 20
-178.31787109375
 30
0.0
 10
487.5849609375
 20
-170.84814453125
 30
0.0
 10
487.5849609375
 20
-163.37841796875
 30
0.0
 10
490.0078125
 20
-159.92822265625
 30
0.0
 10
495.1298828125
 20
-159.92822265625
 30
0.0
  0
SPLINE
  5
F4
330
E9
100
AcDbEntity
  8
Text Kopie
370
     0
100
AcDbSpline
210
0.0
220
0.0
230
1.0
 70
    11
 71
     3
 72
    17
 73
    13
 74
     0
 42
0.0000000001
 43
0.0000000001
 40
0.0
 40
0.0
 40
0.0
 40
0.0
 40
1.0
 40
1.0
 40
1.0
 40
2.0
 40
2.0
 40
2.0
 40
3.0
 40
3.0
 40
3.0
 40
4.0
 40
4.0
 40
4.0
 40
4.0
 10
495.1298828125
 20
-178.4375
 30
0.0
 10
497.5830078125
 20
-178.4375
 30
0.0
 10
498.2578125
 20
-176.337890625
 30
0.0
 10
498.2578125
 20
-170.84814453125
 30
0.0
 10
498.2578125
 20
-165.3583984375
 30
0.0
 10
497.5830078125
 20
-163.2880859375
 30
0.0
 10
495.1298828125
 20
-163.2880859375
 30
0.0
 10
492.67578125
 20
-163.2880859375
 30
0.0
 10
492.001953125
 20
-165.3583984375
 30
0.0
 10
492.001953125
 20
-170.84814453125
 30
0.0
 10
492.001953125
 20
-176.337890625
 30
0.0
 10
492.67578125
 20
-178.4375
 30
0.0
 10
495.1298828125
 20
-178.4375
 30
0.0
  0
HATCH
  5
F5
330
E9
100
AcDbEntity
  8
Text Kopie
 62
   250
420
  1842203
100
AcDbHatch
 10
0.0
 20
0.0
 30
0.0
210
0.0
220
0.0
230
1.0
  2
SOLID
 70
     1
 71
     0
 91
        2
 92
        1
 93
        1
 72
     4
 94
        3
 73
     0
 74
     1
 95
       17
 96
       13
 40
0.0
 40
0.0
 40
0.0
 40
0.0
 40
1.0
 40
1.0
 40
1.0
 40
2.0
 40
2.0
 40
2.0
 40
3.0
 40
3.0
 40
3.0
 40
4.0
 40
4.0
 40
4.0
 40
4.0
 10
495.1298828125
 20
-159.92822265625
 10
500.251953125
 20
-159.92822265625
 10
502.6748046875
 20
-163.37841796875
 10
502.6748046875
 20
-170.84814453125
 10
502.6748046875
 20
-178.31787109375
 10
500.251953125
 20
-181.79736328125
 10
495.1298828125
 20
-181.79736328125
 10
490.0078125
 20
-181.79736328125
 10
487.5849609375
 20
-178.31787109375
 10
487.5849609375
 20
-170.84814453125
 10
487.5849609375
 20
-163.37841796875
 10
490.0078125
 20
-159.92822265625
 10
495.1298828125
 20
-159.92822265625
 97
        0
 92
        1
 93
        1
 72
     4
 94
        3
 73
     0
 74
     1
 95
       17
 96
       13
 40
0.0
 40
0.0
 40
0.0
 40
0.0
 40
1.0
 40
1.0
 40
1.0
 40
2.0
 40
2.0
 40
2.0
 40
3.0
 40
3.0
 40
3.0
 40
4.0
 40
4.0
 40
4.0
 40
4.0
 10
495.1298828125
 20
-178.4375
 10
497.5830078125
 20
-178.4375
 10
498.2578125
 20
-176.337890625
 10
498.2578125
 20
-170.84814453125
 10
498.2578125
 20
-165.3583984375
 10
497.5830078125
 20
-163.2880859375
 10
495.1298828125
 20
-163.2880859375
 10
492.67578125
 20
-163.2880859375
 10
492.001953125
 20
-165.3583984375
 10
492.001953125
 20
-170.84814453125
 10
492.001953125
 20
-176.337890625
 10
492.67578125
 20
-178.4375
 10
495.1298828125
 20
-178.4375
 97
        0
 75
     2
 76
     1
 98
        0
  0
ENDBLK
  5
EC
330
E9
100
AcDbEntity
  8
0
100
AcDbBlockEnd
  0
BLOCK
  5
F8
330
F6
100
AcDbEntity
  8
0
100
AcDbBlockBegin
  2
block 9
 70
     0
 71
     0
 10
0.0
 20
0.0
 30
0.0
  3
block 9
  1

  0
SPLINE
  5
FA
330
F6
100
AcDbEntity
  8
Text Kopie
370
     0
100
AcDbSpline
210
0.0
220
0.0
230
1.0
 70
    11
 71
     3
 72
    29
 73
    25
 74
     0
 42
0.0000000001
 43
0.0000000001
 40
0.0
 40
0.0
 40
0.0
 40
0.0
 40
1.0
 40
1.0
 40
1.0
 40
2.0
 40
2.0
 40
2.0
 40
3.0
 40
3.0
 40
3.0
 40
4.0
 40
4.0
 40
4.0
 40
5.0
 40
5.0
 40
5.0
 40
6.0
 40
6.0
 40
6.0
 40
7.0
 40
7.0
 40
7.0
 40
8.0
 40
8.0
 40
8.0
 40
8.0
 10
249.537109375
 20
-117.09423828125
 30
0.0
 10
249.537109375
 20
-117.09423828125
 30
0.0
 10
250.150390625
 20
-117.09423828125
 30
0.0
 10
250.150390625
 20
-117.09423828125
 30
0.0
 10
254.291015625
 20
-117.09423828125
 30
0.0
 10
255.39501953125
 20
-114.99462890625
 30
0.0
 10
255.4873046875
 20
-113.404296875
 30
0.0
 10
255.4873046875
 20
-113.404296875
 30
0.0
 10
259.01416015625
 20
-113.404296875
 30
0.0
 10
259.01416015625
 20
-113.404296875
 30
0.0
 10
259.01416015625
 20
-113.404296875
 30
0.0
 10
259.01416015625
 20
-134.70361328125
 30
0.0
 10
259.01416015625
 20
-134.70361328125
 30
0.0
 10
259.01416015625
 20
-134.70361328125
 30
0.0
 10
254.72021484375
 20
-134.70361328125
 30
0.0
 10
254.72021484375
 20
-134.70361328125
 30
0.0
 10
254.72021484375
 20
-134.70361328125
 30
0.0
 10
254.72021484375
 20
-120.0341796875
 30
0.0
 10
254.72021484375
 20
-120.0341796875
 30
0.0
 10
254.72021484375
 20
-120.0341796875
 30
0.0
 10
249.537109375
 20
-120.0341796875
 30
0.0
 10
249.537109375
 20
-120.0341796875
 30
0.0
 10
249.537109375
 20
-120.0341796875
 30
0.0
 10
249.537109375
 20
-117.09423828125
 30
0.0
 10
249.537109375
 20
-117.09423828125
 30
0.0
  0
HATCH
  5
FB
330
F6
100
AcDbEntity
  8
Text Kopie
 62
   250
420
  1842203
100
AcDbHatch
 10
0.0
 20
0.0
 30
0.0
210
0.0
220
0.0
230
1.0
  2
SOLID
 70
     1
 71
     0
 91
        1
 92
        1
 93
        1
 72
     4
 94
        3
 73
     0
 74
     1
 95
       29
 96
       25
 40
0.0
 40
0.0
 40
0.0
 40
0.0
 40
1.0
 40
1.0
 40
1.0
 40
2.0
 40
2.0
 40
2.0
 40
3.0
 40
3.0
 40
3.0
 40
4.0
 40
4.0
 40
4.0
 40
5.0
 40
5.0
 40
5.0
 40
6.0
 40
6.0
 40
6.0
 40
7.0
 40
7.0
 40
7.0
 40
8.0
 40
8.0
 40
8.0
 40
8.0
 10
249.537109375
 20
-117.09423828125
 10
249.537109375
 20
-117.09423828125
 10
250.150390625
 20
-117.09423828125
 10
250.150390625
 20
-117.09423828125
 10
254.291015625
 20
-117.09423828125
 10
255.39501953125
 20
-114.99462890625
 10
255.4873046875
 20
-113.404296875
 10
255.4873046875
 20
-113.404296875
 10
259.01416015625
 20
-113.404296875
 10
259.01416015625
 20
-113.404296875
 10
259.01416015625
 20
-113.404296875
 10
259.01416015625
 20
-134.70361328125
 10
259.01416015625
 20
-134.70361328125
 10
259.01416015625
 20
-134.70361328125
 10
254.72021484375
 20
-134.70361328125
 10
254.72021484375
 20
-134.70361328125
 10
254.72021484375
 20
-134.70361328125
 10
254.72021484375
 20
-120.0341796875
 10
254.72021484375
 20
-120.0341796875
 10
254.72021484375
 20
-120.0341796875
 10
249.537109375
 20
-120.0341796875
 10
249.537109375
 20
-120.0341796875
 10
249.537109375
 20
-120.0341796875
 10
249.537109375
 20
-117.09423828125
 10
249.537109375
 20
-117.09423828125
 97
        0
 75
     2
 76
     1
 98
        0
  0
SPLINE
  5
FC
330
F6
100
AcDbEntity
  8
Text Kopie
370
     0
100
AcDbSpline
210
0.0
220
0.0
230
1.0
 70
    11
 71
     3
 72
    26
 73
    22
 74
     0
 42
0.0000000001
 43
0.0000000001
 40
0.0
 40
0.0
 40
0.0
 40
0.0
 40
1.0
 40
1.0
 40
1.0
 40
2.0
 40
2.0
 40
2.0
 40
3.0
 40
3.0
 40
3.0
 40
4.0
 40
4.0
 40
4.0
 40
5.0
 40
5.0
 40
5.0
 40
6.0
 40
6.0
 40
6.0
 40
7.0
 40
7.0
 40
7.0
 40
7.0
 10
280.666015625
 20
-117.00439453125
 30
0.0
 10
278.58056640625
 20
-119.22412109375
 30
0.0
 10
273.24365234375
 20
-125.52392578125
 30
0.0
 10
272.72265625
 20
-134.70361328125
 30
0.0
 10
272.72265625
 20
-134.70361328125
 30
0.0
 10
268.30615234375
 20
-134.70361328125
 30
0.0
 10
268.30615234375
 20
-134.70361328125
 30
0.0
 10
268.76611328125
 20
-126.18408203125
 30
0.0
 10
274.22509765625
 20
-119.404296875
 30
0.0
 10
276.0654296875
 20
-117.484375
 30
0.0
 10
276.0654296875
 20
-117.484375
 30
0.0
 10
265.23876953125
 20
-117.484375
 30
0.0
 10
265.23876953125
 20
-117.484375
 30
0.0
 10
265.23876953125
 20
-117.484375
 30
0.0
 10
265.3310546875
 20
-113.7646484375
 30
0.0
 10
265.3310546875
 20
-113.7646484375
 30
0.0
 10
265.3310546875
 20
-113.7646484375
 30
0.0
 10
280.666015625
 20
-113.7646484375
 30
0.0
 10
280.666015625
 20
-113.7646484375
 30
0.0
 10
280.666015625
 20
-113.7646484375
 30
0.0
 10
280.666015625
 20
-117.00439453125
 30
0.0
 10
280.666015625
 20
-117.00439453125
 30
0.0
  0
HATCH
  5
FD
330
F6
100
AcDbEntity
  8
Text Kopie
 62
   250
420
  1842203
100
AcDbHatch
 10
0.0
 20
0.0
 30
0.0
210
0.0
220
0.0
230
1.0
  2
SOLID
 70
     1
 71
     0
 91
        1
 92
        1
 93
        1
 72
     4
 94
        3
 73
     0
 74
     1
 95
       26
 96
       22
 40
0.0
 40
0.0
 40
0.0
 40
0.0
 40
1.0
 40
1.0
 40
1.0
 40
2.0
 40
2.0
 40
2.0
 40
3.0
 40
3.0
 40
3.0
 40
4.0
 40
4.0
 40
4.0
 40
5.0
 40
5.0
 40
5.0
 40
6.0
 40
6.0
 40
6.0
 40
7.0
 40
7.0
 40
7.0
 40
7.0
 10
280.666015625
 20
-117.00439453125
 10
278.58056640625
 20
-119.22412109375
 10
273.24365234375
 20
-125.52392578125
 10
272.72265625
 20
-134.70361328125
 10
272.72265625
 20
-134.70361328125
 10
268.30615234375
 20
-134.70361328125
 10
268.30615234375
 20
-134.70361328125
 10
268.76611328125
 20
-126.18408203125
 10
274.22509765625
 20
-119.404296875
 10
276.0654296875
 20
-117.484375
 10
276.0654296875
 20
-117.484375
 10
265.23876953125
 20
-117.484375
 10
265.23876953125
 20
-117.484375
 10
265.23876953125
 20
-117.484375
 10
265.3310546875
 20
-113.7646484375
 10
265.3310546875
 20
-113.7646484375
 10
265.3310546875
 20
-113.7646484375
 10
280.666015625
 20
-113.7646484375
 10
280.666015625
 20
-113.7646484375
 10
280.666015625
 20
-113.7646484375
 10
280.666015625
 20
-117.00439453125
 10
280.666015625
 20
-117.00439453125
 97
        0
 75
     2
 76
     1
 98
        0
  0
SPLINE
  5
FE
330
F6
100
AcDbEntity
  8
Text Kopie
370
     0
100
AcDbSpline
210
0.0
220
0.0
230
1.0
 70
    11
 71
     3
 72
    50
 73
    46
 74
     0
 42
0.0000000001
 43
0.0000000001
 40
0.0
 40
0.0
 40
0.0
 40
0.0
 40
1.0
 40
1.0
 40
1.0
 40
2.0
 40
2.0
 40
2.0
 40
3.0
 40
3.0
 40
3.0
 40
4.0
 40
4.0
 40
4.0
 40
5.0
 40
5.0
 40
5.0
 40
6.0
 40
6.0
 40
6.0
 40
7.0
 40
7.0
 40
7.0
 40
8.0
 40
8.0
 40
8.0
 40
9.0
 40
9.0
 40
9.0
 40
10.0
 40
10.0
 40
10.0
 40
11.0
 40
11.0
 40
11.0
 40
12.0
 40
12.0
 40
12.0
 40
13.0
 40
13.0
 40
13.0
 40
14.0
 40
14.0
 40
14.0
 40
15.0
 40
15.0
 40
15.0
 40
15.0
 10
286.859375
 20
-121.92431640625
 30
0.0
 10
287.6572265625
 20
-121.38427734375
 30
0.0
 10
288.638671875
 20
-120.75439453125
 30
0.0
 10
290.7548828125
 20
-120.75439453125
 30
0.0
 10
293.66845703125
 20
-120.75439453125
 30
0.0
 10
297.3486328125
 20
-122.73388671875
 30
0.0
 10
297.3486328125
 20
-127.6240234375
 30
0.0
 10
297.3486328125
 20
-130.53369140625
 30
0.0
 10
295.845703125
 20
-135.2734375
 30
0.0
 10
289.43603515625
 20
-135.2734375
 30
0.0
 10
286.03125
 20
-135.2734375
 30
0.0
 10
282.56591796875
 20
-133.29345703125
 30
0.0
 10
282.35107421875
 20
-129.00390625
 30
0.0
 10
282.35107421875
 20
-129.00390625
 30
0.0
 10
286.64501953125
 20
-129.00390625
 30
0.0
 10
286.64501953125
 20
-129.00390625
 30
0.0
 10
286.8291015625
 20
-130.74365234375
 30
0.0
 10
287.77978515625
 20
-131.91357421875
 30
0.0
 10
289.68115234375
 20
-131.91357421875
 30
0.0
 10
291.736328125
 20
-131.91357421875
 30
0.0
 10
292.93212890625
 20
-130.20361328125
 30
0.0
 10
292.93212890625
 20
-127.923828125
 30
0.0
 10
292.93212890625
 20
-126.0341796875
 30
0.0
 10
292.01220703125
 20
-124.1142578125
 30
0.0
 10
289.74267578125
 20
-124.1142578125
 30
0.0
 10
289.15966796875
 20
-124.1142578125
 30
0.0
 10
287.6875
 20
-124.14404296875
 30
0.0
 10
286.859375
 20
-125.64404296875
 30
0.0
 10
286.859375
 20
-125.64404296875
 30
0.0
 10
283.02587890625
 20
-125.4638671875
 30
0.0
 10
283.02587890625
 20
-125.4638671875
 30
0.0
 10
283.02587890625
 20
-125.4638671875
 30
0.0
 10
284.52880859375
 20
-113.7646484375
 30
0.0
 10
284.52880859375
 20
-113.7646484375
 30
0.0
 10
284.52880859375
 20
-113.7646484375
 30
0.0
 10
296.490234375
 20
-113.7646484375
 30
0.0
 10
296.490234375
 20
-113.7646484375
 30
0.0
 10
296.490234375
 20
-113.7646484375
 30
0.0
 10
296.490234375
 20
-117.30419921875
 30
0.0
 10
296.490234375
 20
-117.30419921875
 30
0.0
 10
296.490234375
 20
-117.30419921875
 30
0.0
 10
287.62646484375
 20
-117.30419921875
 30
0.0
 10
287.62646484375
 20
-117.30419921875
 30
0.0
 10
287.62646484375
 20
-117.30419921875
 30
0.0
 10
286.859375
 20
-121.92431640625
 30
0.0
 10
286.859375
 20
-121.92431640625
 30
0.0
  0
HATCH
  5
FF
330
F6
100
AcDbEntity
  8
Text Kopie
 62
   250
420
  1842203
100
AcDbHatch
 10
0.0
 20
0.0
 30
0.0
210
0.0
220
0.0
230
1.0
  2
SOLID
 70
     1
 71
     0
 91
        1
 92
        1
 93
        1
 72
     4
 94
        3
 73
     0
 74
     1
 95
       50
 96
       46
 40
0.0
 40
0.0
 40
0.0
 40
0.0
 40
1.0
 40
1.0
 40
1.0
 40
2.0
 40
2.0
 40
2.0
 40
3.0
 40
3.0
 40
3.0
 40
4.0
 40
4.0
 40
4.0
 40
5.0
 40
5.0
 40
5.0
 40
6.0
 40
6.0
 40
6.0
 40
7.0
 40
7.0
 40
7.0
 40
8.0
 40
8.0
 40
8.0
 40
9.0
 40
9.0
 40
9.0
 40
10.0
 40
10.0
 40
10.0
 40
11.0
 40
11.0
 40
11.0
 40
12.0
 40
12.0
 40
12.0
 40
13.0
 40
13.0
 40
13.0
 40
14.0
 40
14.0
 40
14.0
 40
15.0
 40
15.0
 40
15.0
 40
15.0
 10
286.859375
 20
-121.92431640625
 10
287.6572265625
 20
-121.38427734375
 10
288.638671875
 20
-120.75439453125
 10
290.7548828125
 20
-120.75439453125
 10
293.66845703125
 20
-120.75439453125
 10
297.3486328125
 20
-122.73388671875
 10
297.3486328125
 20
-127.6240234375
 10
297.3486328125
 20
-130.53369140625
 10
295.845703125
 20
-135.2734375
 10
289.43603515625
 20
-135.2734375
 10
286.03125
 20
-135.2734375
 10
282.56591796875
 20
-133.29345703125
 10
282.35107421875
 20
-129.00390625
 10
282.35107421875
 20
-129.00390625
 10
286.64501953125
 20
-129.00390625
 10
286.64501953125
 20
-129.00390625
 10
286.8291015625
 20
-130.74365234375
 10
287.77978515625
 20
-131.91357421875
 10
289.68115234375
 20
-131.91357421875
 10
291.736328125
 20
-131.91357421875
 10
292.93212890625
 20
-130.20361328125
 10
292.93212890625
 20
-127.923828125
 10
292.93212890625
 20
-126.0341796875
 10
292.01220703125
 20
-124.1142578125
 10
289.74267578125
 20
-124.1142578125
 10
289.15966796875
 20
-124.1142578125
 10
287.6875
 20
-124.14404296875
 10
286.859375
 20
-125.64404296875
 10
286.859375
 20
-125.64404296875
 10
283.02587890625
 20
-125.4638671875
 10
283.02587890625
 20
-125.4638671875
 10
283.02587890625
 20
-125.4638671875
 10
284.52880859375
 20
-113.7646484375
 10
284.52880859375
 20
-113.7646484375
 10
284.52880859375
 20
-113.7646484375
 10
296.490234375
 20
-113.7646484375
 10
296.490234375
 20
-113.7646484375
 10
296.490234375
 20
-113.7646484375
 10
296.490234375
 20
-117.30419921875
 10
296.490234375
 20
-117.30419921875
 10
296.490234375
 20
-117.30419921875
 10
287.62646484375
 20
-117.30419921875
 10
287.62646484375
 20
-117.30419921875
 10
287.62646484375
 20
-117.30419921875
 10
286.859375
 20
-121.92431640625
 10
286.859375
 20
-121.92431640625
 97
        0
 75
     2
 76
     1
 98
        0
  0
SPLINE
  5
100
330
F6
100
AcDbEntity
  8
Text Kopie
370
     0
100
AcDbSpline
210
0.0
220
0.0
230
1.0
 70
    11
 71
     3
 72
    17
 73
    13
 74
     0
 42
0.0000000001
 43
0.0000000001
 40
0.0
 40
0.0
 40
0.0
 40
0.0
 40
1.0
 40
1.0
 40
1.0
 40
2.0
 40
2.0
 40
2.0
 40
3.0
 40
3.0
 40
3.0
 40
4.0
 40
4.0
 40
4.0
 40
4.0
 10
307.1005859375
 20
-113.404296875
 30
0.0
 10
312.22265625
 20
-113.404296875
 30
0.0
 10
314.6455078125
 20
-116.8544921875
 30
0.0
 10
314.6455078125
 20
-124.32421875
 30
0.0
 10
314.6455078125
 20
-131.7939453125
 30
0.0
 10
312.22265625
 20
-135.2734375
 30
0.0
 10
307.1005859375
 20
-135.2734375
 30
0.0
 10
301.978515625
 20
-135.2734375
 30
0.0
 10
299.5556640625
 20
-131.7939453125
 30
0.0
 10
299.5556640625
 20
-124.32421875
 30
0.0
 10
299.5556640625
 20
-116.8544921875
 30
0.0
 10
301.978515625
 20
-113.404296875
 30
0.0
 10
307.1005859375
 20
-113.404296875
 30
0.0
  0
SPLINE
  5
101
330
F6
100
AcDbEntity
  8
Text Kopie
370
     0
100
AcDbSpline
210
0.0
220
0.0
230
1.0
 70
    11
 71
     3
 72
    17
 73
    13
 74
     0
 42
0.0000000001
 43
0.0000000001
 40
0.0
 40
0.0
 40
0.0
 40
0.0
 40
1.0
 40
1.0
 40
1.0
 40
2.0
 40
2.0
 40
2.0
 40
3.0
 40
3.0
 40
3.0
 40
4.0
 40
4.0
 40
4.0
 40
4.0
 10
307.1005859375
 20
-131.91357421875
 30
0.0
 10
309.5537109375
 20
-131.91357421875
 30
0.0
 10
310.228515625
 20
-129.81396484375
 30
0.0
 10
310.228515625
 20
-124.32421875
 30
0.0
 10
310.228515625
 20
-118.83447265625
 30
0.0
 10
309.5537109375
 20
-116.76416015625
 30
0.0
 10
307.1005859375
 20
-116.76416015625
 30
0.0
 10
304.646484375
 20
-116.76416015625
 30
0.0
 10
303.97265625
 20
-118.83447265625
 30
0.0
 10
303.97265625
 20
-124.32421875
 30
0.0
 10
303.97265625
 20
-129.81396484375
 30
0.0
 10
304.646484375
 20
-131.91357421875
 30
0.0
 10
307.1005859375
 20
-131.91357421875
 30
0.0
  0
HATCH
  5
102
330
F6
100
AcDbEntity
  8
Text Kopie
 62
   250
420
  1842203
100
AcDbHatch
 10
0.0
 20
0.0
 30
0.0
210
0.0
220
0.0
230
1.0
  2
SOLID
 70
     1
 71
     0
 91
        2
 92
        1
 93
        1
 72
     4
 94
        3
 73
     0
 74
     1
 95
       17
 96
       13
 40
0.0
 40
0.0
 40
0.0
 40
0.0
 40
1.0
 40
1.0
 40
1.0
 40
2.0
 40
2.0
 40
2.0
 40
3.0
 40
3.0
 40
3.0
 40
4.0
 40
4.0
 40
4.0
 40
4.0
 10
307.1005859375
 20
-113.404296875
 10
312.22265625
 20
-113.404296875
 10
314.6455078125
 20
-116.8544921875
 10
314.6455078125
 20
-124.32421875
 10
314.6455078125
 20
-131.7939453125
 10
312.22265625
 20
-135.2734375
 10
307.1005859375
 20
-135.2734375
 10
301.978515625
 20
-135.2734375
 10
299.5556640625
 20
-131.7939453125
 10
299.5556640625
 20
-124.32421875
 10
299.5556640625
 20
-116.8544921875
 10
301.978515625
 20
-113.404296875
 10
307.1005859375
 20
-113.404296875
 97
        0
 92
        1
 93
        1
 72
     4
 94
        3
 73
     0
 74
     1
 95
       17
 96
       13
 40
0.0
 40
0.0
 40
0.0
 40
0.0
 40
1.0
 40
1.0
 40
1.0
 40
2.0
 40
2.0
 40
2.0
 40
3.0
 40
3.0
 40
3.0
 40
4.0
 40
4.0
 40
4.0
 40
4.0
 10
307.1005859375
 20
-131.91357421875
 10
309.5537109375
 20
-131.91357421875
 10
310.228515625
 20
-129.81396484375
 10
310.228515625
 20
-124.32421875
 10
310.228515625
 20
-118.83447265625
 10
309.5537109375
 20
-116.76416015625
 10
307.1005859375
 20
-116.76416015625
 10
304.646484375
 20
-116.76416015625
 10
303.97265625
 20
-118.83447265625
 10
303.97265625
 20
-124.32421875
 10
303.97265625
 20
-129.81396484375
 10
304.646484375
 20
-131.91357421875
 10
307.1005859375
 20
-131.91357421875
 97
        0
 75
     2
 76
     1
 98
        0
  0
ENDBLK
  5
F9
330
F6
100
AcDbEntity
  8
0
100
AcDbBlockEnd
  0
BLOCK
  5
105
330
103
100
AcDbEntity
  8
0
100
AcDbBlockBegin
  2
block 10
 70
     0
 71
     0
 10
0.0
 20
0.0
 30
0.0
  3
block 10
  1

  0
SPLINE
  5
107
330
103
100
AcDbEntity
  8
Text Kopie
370
     0
100
AcDbSpline
210
0.0
220
0.0
230
1.0
 70
    11
 71
     3
 72
    38
 73
    34
 74
     0
 42
0.0000000001
 43
0.0000000001
 40
0.0
 40
0.0
 40
0.0
 40
0.0
 40
1.0
 40
1.0
 40
1.0
 40
2.0
 40
2.0
 40
2.0
 40
3.0
 40
3.0
 40
3.0
 40
4.0
 40
4.0
 40
4.0
 40
5.0
 40
5.0
 40
5.0
 40
6.0
 40
6.0
 40
6.0
 40
7.0
 40
7.0
 40
7.0
 40
8.0
 40
8.0
 40
8.0
 40
9.0
 40
9.0
 40
9.0
 40
10.0
 40
10.0
 40
10.0
 40
11.0
 40
11.0
 40
11.0
 40
11.0
 10
138.951171875
 20
-442.837890625
 30
0.0
 10
138.82861328125
 20
-441.6376953125
 30
0.0
 10
138.03125
 20
-440.7978515625
 30
0.0
 10
136.4365234375
 20
-440.7978515625
 30
0.0
 10
133.6455078125
 20
-440.7978515625
 30
0.0
 10
133.00146484375
 20
-443.91796875
 30
0.0
 10
132.84765625
 20
-446.677734375
 30
0.0
 10
132.84765625
 20
-446.677734375
 30
0.0
 10
132.9091796875
 20
-446.7373046875
 30
0.0
 10
132.9091796875
 20
-446.7373046875
 30
0.0
 10
133.4921875
 20
-445.9580078125
 30
0.0
 10
134.5654296875
 20
-444.9677734375
 30
0.0
 10
136.98828125
 20
-444.9677734375
 30
0.0
 10
141.4970703125
 20
-444.9677734375
 30
0.0
 10
143.6435546875
 20
-448.357421875
 30
0.0
 10
143.6435546875
 20
-451.5380859375
 30
0.0
 10
143.6435546875
 20
-456.1875
 30
0.0
 10
140.72998046875
 20
-459.3076171875
 30
0.0
 10
136.5283203125
 20
-459.3076171875
 30
0.0
 10
129.93408203125
 20
-459.3076171875
 30
0.0
 10
128.64599609375
 20
-453.9072265625
 30
0.0
 10
128.64599609375
 20
-448.59765625
 30
0.0
 10
128.64599609375
 20
-444.5478515625
 30
0.0
 10
129.1982421875
 20
-437.4384765625
 30
0.0
 10
136.7431640625
 20
-437.4384765625
 30
0.0
 10
137.63232421875
 20
-437.4384765625
 30
0.0
 10
140.11669921875
 20
-437.7685546875
 30
0.0
 10
141.1904296875
 20
-438.818359375
 30
0.0
 10
142.38623046875
 20
-439.9580078125
 30
0.0
 10
142.81591796875
 20
-440.587890625
 30
0.0
 10
143.21435546875
 20
-442.837890625
 30
0.0
 10
143.21435546875
 20
-442.837890625
 30
0.0
 10
138.951171875
 20
-442.837890625
 30
0.0
 10
138.951171875
 20
-442.837890625
 30
0.0
  0
SPLINE
  5
108
330
103
100
AcDbEntity
  8
Text Kopie
370
     0
100
AcDbSpline
210
0.0
220
0.0
230
1.0
 70
    11
 71
     3
 72
    17
 73
    13
 74
     0
 42
0.0000000001
 43
0.0000000001
 40
0.0
 40
0.0
 40
0.0
 40
0.0
 40
1.0
 40
1.0
 40
1.0
 40
2.0
 40
2.0
 40
2.0
 40
3.0
 40
3.0
 40
3.0
 40
4.0
 40
4.0
 40
4.0
 40
4.0
 10
136.2216796875
 20
-448.328125
 30
0.0
 10
134.59619140625
 20
-448.328125
 30
0.0
 10
132.93994140625
 20
-449.3173828125
 30
0.0
 10
132.93994140625
 20
-451.9873046875
 30
0.0
 10
132.93994140625
 20
-454.2978515625
 30
0.0
 10
134.28955078125
 20
-455.947265625
 30
0.0
 10
136.34423828125
 20
-455.947265625
 30
0.0
 10
137.90869140625
 20
-455.947265625
 30
0.0
 10
139.35009765625
 20
-454.77734375
 30
0.0
 10
139.35009765625
 20
-451.8974609375
 30
0.0
 10
139.35009765625
 20
-449.197265625
 30
0.0
 10
137.5712890625
 20
-448.328125
 30
0.0
 10
136.2216796875
 20
-448.328125
 30
0.0
  0
HATCH
  5
109
330
103
100
AcDbEntity
  8
Text Kopie
 62
   250
420
  1842203
100
AcDbHatch
 10
0.0
 20
0.0
 30
0.0
210
0.0
220
0.0
230
1.0
  2
SOLID
 70
     1
 71
     0
 91
        2
 92
        1
 93
        1
 72
     4
 94
        3
 73
     0
 74
     1
 95
       38
 96
       34
 40
0.0
 40
0.0
 40
0.0
 40
0.0
 40
1.0
 40
1.0
 40
1.0
 40
2.0
 40
2.0
 40
2.0
 40
3.0
 40
3.0
 40
3.0
 40
4.0
 40
4.0
 40
4.0
 40
5.0
 40
5.0
 40
5.0
 40
6.0
 40
6.0
 40
6.0
 40
7.0
 40
7.0
 40
7.0
 40
8.0
 40
8.0
 40
8.0
 40
9.0
 40
9.0
 40
9.0
 40
10.0
 40
10.0
 40
10.0
 40
11.0
 40
11.0
 40
11.0
 40
11.0
 10
138.951171875
 20
-442.837890625
 10
138.82861328125
 20
-441.6376953125
 10
138.03125
 20
-440.7978515625
 10
136.4365234375
 20
-440.7978515625
 10
133.6455078125
 20
-440.7978515625
 10
133.00146484375
 20
-443.91796875
 10
132.84765625
 20
-446.677734375
 10
132.84765625
 20
-446.677734375
 10
132.9091796875
 20
-446.7373046875
 10
132.9091796875
 20
-446.7373046875
 10
133.4921875
 20
-445.9580078125
 10
134.5654296875
 20
-444.9677734375
 10
136.98828125
 20
-444.9677734375
 10
141.4970703125
 20
-444.9677734375
 10
143.6435546875
 20
-448.357421875
 10
143.6435546875
 20
-451.5380859375
 10
143.6435546875
 20
-456.1875
 10
140.72998046875
 20
-459.3076171875
 10
136.5283203125
 20
-459.3076171875
 10
129.93408203125
 20
-459.3076171875
 10
128.64599609375
 20
-453.9072265625
 10
128.64599609375
 20
-448.59765625
 10
128.64599609375
 20
-444.5478515625
 10
129.1982421875
 20
-437.4384765625
 10
136.7431640625
 20
-437.4384765625
 10
137.63232421875
 20
-437.4384765625
 10
140.11669921875
 20
-437.7685546875
 10
141.1904296875
 20
-438.818359375
 10
142.38623046875
 20
-439.9580078125
 10
142.81591796875
 20
-440.587890625
 10
143.21435546875
 20
-442.837890625
 10
143.21435546875
 20
-442.837890625
 10
138.951171875
 20
-442.837890625
 10
138.951171875
 20
-442.837890625
 97
        0
 92
        1
 93
        1
 72
     4
 94
        3
 73
     0
 74
     1
 95
       17
 96
       13
 40
0.0
 40
0.0
 40
0.0
 40
0.0
 40
1.0
 40
1.0
 40
1.0
 40
2.0
 40
2.0
 40
2.0
 40
3.0
 40
3.0
 40
3.0
 40
4.0
 40
4.0
 40
4.0
 40
4.0
 10
136.2216796875
 20
-448.328125
 10
134.59619140625
 20
-448.328125
 10
132.93994140625
 20
-449.3173828125
 10
132.93994140625
 20
-451.9873046875
 10
132.93994140625
 20
-454.2978515625
 10
134.28955078125
 20
-455.947265625
 10
136.34423828125
 20
-455.947265625
 10
137.90869140625
 20
-455.947265625
 10
139.35009765625
 20
-454.77734375
 10
139.35009765625
 20
-451.8974609375
 10
139.35009765625
 20
-449.197265625
 10
137.5712890625
 20
-448.328125
 10
136.2216796875
 20
-448.328125
 97
        0
 75
     2
 76
     1
 98
        0
  0
SPLINE
  5
10A
330
103
100
AcDbEntity
  8
Text Kopie
370
     0
100
AcDbSpline
210
0.0
220
0.0
230
1.0
 70
    11
 71
     3
 72
    17
 73
    13
 74
     0
 42
0.0000000001
 43
0.0000000001
 40
0.0
 40
0.0
 40
0.0
 40
0.0
 40
1.0
 40
1.0
 40
1.0
 40
2.0
 40
2.0
 40
2.0
 40
3.0
 40
3.0
 40
3.0
 40
4.0
 40
4.0
 40
4.0
 40
4.0
 10
153.27294921875
 20
-437.4384765625
 30
0.0
 10
158.39501953125
 20
-437.4384765625
 30
0.0
 10
160.81787109375
 20
-440.8876953125
 30
0.0
 10
160.81787109375
 20
-448.357421875
 30
0.0
 10
160.81787109375
 20
-455.8271484375
 30
0.0
 10
158.39501953125
 20
-459.3076171875
 30
0.0
 10
153.27294921875
 20
-459.3076171875
 30
0.0
 10
148.15087890625
 20
-459.3076171875
 30
0.0
 10
145.72802734375
 20
-455.8271484375
 30
0.0
 10
145.72802734375
 20
-448.357421875
 30
0.0
 10
145.72802734375
 20
-440.8876953125
 30
0.0
 10
148.15087890625
 20
-437.4384765625
 30
0.0
 10
153.27294921875
 20
-437.4384765625
 30
0.0
  0
SPLINE
  5
10B
330
103
100
AcDbEntity
  8
Text Kopie
370
     0
100
AcDbSpline
210
0.0
220
0.0
230
1.0
 70
    11
 71
     3
 72
    17
 73
    13
 74
     0
 42
0.0000000001
 43
0.0000000001
 40
0.0
 40
0.0
 40
0.0
 40
0.0
 40
1.0
 40
1.0
 40
1.0
 40
2.0
 40
2.0
 40
2.0
 40
3.0
 40
3.0
 40
3.0
 40
4.0
 40
4.0
 40
4.0
 40
4.0
 10
153.27294921875
 20
-455.947265625
 30
0.0
 10
155.7265625
 20
-455.947265625
 30
0.0
 10
156.4013671875
 20
-453.84765625
 30
0.0
 10
156.4013671875
 20
-448.357421875
 30
0.0
 10
156.4013671875
 20
-442.8681640625
 30
0.0
 10
155.7265625
 20
-440.7978515625
 30
0.0
 10
153.27294921875
 20
-440.7978515625
 30
0.0
 10
150.8193359375
 20
-440.7978515625
 30
0.0
 10
150.14453125
 20
-442.8681640625
 30
0.0
 10
150.14453125
 20
-448.357421875
 30
0.0
 10
150.14453125
 20
-453.84765625
 30
0.0
 10
150.8193359375
 20
-455.947265625
 30
0.0
 10
153.27294921875
 20
-455.947265625
 30
0.0
  0
HATCH
  5
10C
330
103
100
AcDbEntity
  8
Text Kopie
 62
   250
420
  1842203
100
AcDbHatch
 10
0.0
 20
0.0
 30
0.0
210
0.0
220
0.0
230
1.0
  2
SOLID
 70
     1
 71
     0
 91
        2
 92
        1
 93
        1
 72
     4
 94
        3
 73
     0
 74
     1
 95
       17
 96
       13
 40
0.0
 40
0.0
 40
0.0
 40
0.0
 40
1.0
 40
1.0
 40
1.0
 40
2.0
 40
2.0
 40
2.0
 40
3.0
 40
3.0
 40
3.0
 40
4.0
 40
4.0
 40
4.0
 40
4.0
 10
153.27294921875
 20
-437.4384765625
 10
158.39501953125
 20
-437.4384765625
 10
160.81787109375
 20
-440.8876953125
 10
160.81787109375
 20
-448.357421875
 10
160.81787109375
 20
-455.8271484375
 10
158.39501953125
 20
-459.3076171875
 10
153.27294921875
 20
-459.3076171875
 10
148.15087890625
 20
-459.3076171875
 10
145.72802734375
 20
-455.8271484375
 10
145.72802734375
 20
-448.357421875
 10
145.72802734375
 20
-440.8876953125
 10
148.15087890625
 20
-437.4384765625
 10
153.27294921875
 20
-437.4384765625
 97
        0
 92
        1
 93
        1
 72
     4
 94
        3
 73
     0
 74
     1
 95
       17
 96
       13
 40
0.0
 40
0.0
 40
0.0
 40
0.0
 40
1.0
 40
1.0
 40
1.0
 40
2.0
 40
2.0
 40
2.0
 40
3.0
 40
3.0
 40
3.0
 40
4.0
 40
4.0
 40
4.0
 40
4.0
 10
153.27294921875
 20
-455.947265625
 10
155.7265625
 20
-455.947265625
 10
156.4013671875
 20
-453.84765625
 10
156.4013671875
 20
-448.357421875
 10
156.4013671875
 20
-442.8681640625
 10
155.7265625
 20
-440.7978515625
 10
153.27294921875
 20
-440.7978515625
 10
150.8193359375
 20
-440.7978515625
 10
150.14453125
 20
-442.8681640625
 10
150.14453125
 20
-448.357421875
 10
150.14453125
 20
-453.84765625
 10
150.8193359375
 20
-455.947265625
 10
153.27294921875
 20
-455.947265625
 97
        0
 75
     2
 76
     1
 98
        0
  0
SPLINE
  5
10D
330
103
100
AcDbEntity
  8
Text Kopie
370
     0
100
AcDbSpline
210
0.0
220
0.0
230
1.0
 70
    11
 71
     3
 72
    17
 73
    13
 74
     0
 42
0.0000000001
 43
0.0000000001
 40
0.0
 40
0.0
 40
0.0
 40
0.0
 40
1.0
 40
1.0
 40
1.0
 40
2.0
 40
2.0
 40
2.0
 40
3.0
 40
3.0
 40
3.0
 40
4.0
 40
4.0
 40
4.0
 40
4.0
 10
170.32373046875
 20
-437.4384765625
 30
0.0
 10
175.44580078125
 20
-437.4384765625
 30
0.0
 10
177.86865234375
 20
-440.8876953125
 30
0.0
 10
177.86865234375
 20
-448.357421875
 30
0.0
 10
177.86865234375
 20
-455.8271484375
 30
0.0
 10
175.44580078125
 20
-459.3076171875
 30
0.0
 10
170.32373046875
 20
-459.3076171875
 30
0.0
 10
165.20166015625
 20
-459.3076171875
 30
0.0
 10
162.77880859375
 20
-455.8271484375
 30
0.0
 10
162.77880859375
 20
-448.357421875
 30
0.0
 10
162.77880859375
 20
-440.8876953125
 30
0.0
 10
165.20166015625
 20
-437.4384765625
 30
0.0
 10
170.32373046875
 20
-437.4384765625
 30
0.0
  0
SPLINE
  5
10E
330
103
100
AcDbEntity
  8
Text Kopie
370
     0
100
AcDbSpline
210
0.0
220
0.0
230
1.0
 70
    11
 71
     3
 72
    17
 73
    13
 74
     0
 42
0.0000000001
 43
0.0000000001
 40
0.0
 40
0.0
 40
0.0
 40
0.0
 40
1.0
 40
1.0
 40
1.0
 40
2.0
 40
2.0
 40
2.0
 40
3.0
 40
3.0
 40
3.0
 40
4.0
 40
4.0
 40
4.0
 40
4.0
 10
170.32373046875
 20
-455.947265625
 30
0.0
 10
172.77734375
 20
-455.947265625
 30
0.0
 10
173.4521484375
 20
-453.84765625
 30
0.0
 10
173.4521484375
 20
-448.357421875
 30
0.0
 10
173.4521484375
 20
-442.8681640625
 30
0.0
 10
172.77734375
 20
-440.7978515625
 30
0.0
 10
170.32373046875
 20
-440.7978515625
 30
0.0
 10
167.8701171875
 20
-440.7978515625
 30
0.0
 10
167.1953125
 20
-442.8681640625
 30
0.0
 10
167.1953125
 20
-448.357421875
 30
0.0
 10
167.1953125
 20
-453.84765625
 30
0.0
 10
167.8701171875
 20
-455.947265625
 30
0.0
 10
170.32373046875
 20
-455.947265625
 30
0.0
  0
HATCH
  5
10F
330
103
100
AcDbEntity
  8
Text Kopie
 62
   250
420
  1842203
100
AcDbHatch
 10
0.0
 20
0.0
 30
0.0
210
0.0
220
0.0
230
1.0
  2
SOLID
 70
     1
 71
     0
 91
        2
 92
        1
 93
        1
 72
     4
 94
        3
 73
     0
 74
     1
 95
       17
 96
       13
 40
0.0
 40
0.0
 40
0.0
 40
0.0
 40
1.0
 40
1.0
 40
1.0
 40
2.0
 40
2.0
 40
2.0
 40
3.0
 40
3.0
 40
3.0
 40
4.0
 40
4.0
 40
4.0
 40
4.0
 10
170.32373046875
 20
-437.4384765625
 10
175.44580078125
 20
-437.4384765625
 10
177.86865234375
 20
-440.8876953125
 10
177.86865234375
 20
-448.357421875
 10
177.86865234375
 20
-455.8271484375
 10
175.44580078125
 20
-459.3076171875
 10
170.32373046875
 20
-459.3076171875
 10
165.20166015625
 20
-459.3076171875
 10
162.77880859375
 20
-455.8271484375
 10
162.77880859375
 20
-448.357421875
 10
162.77880859375
 20
-440.8876953125
 10
165.20166015625
 20
-437.4384765625
 10
170.32373046875
 20
-437.4384765625
 97
        0
 92
        1
 93
        1
 72
     4
 94
        3
 73
     0
 74
     1
 95
       17
 96
       13
 40
0.0
 40
0.0
 40
0.0
 40
0.0
 40
1.0
 40
1.0
 40
1.0
 40
2.0
 40
2.0
 40
2.0
 40
3.0
 40
3.0
 40
3.0
 40
4.0
 40
4.0
 40
4.0
 40
4.0
 10
170.32373046875
 20
-455.947265625
 10
172.77734375
 20
-455.947265625
 10
173.4521484375
 20
-453.84765625
 10
173.4521484375
 20
-448.357421875
 10
173.4521484375
 20
-442.8681640625
 10
172.77734375
 20
-440.7978515625
 10
170.32373046875
 20
-440.7978515625
 10
167.8701171875
 20
-440.7978515625
 10
167.1953125
 20
-442.8681640625
 10
167.1953125
 20
-448.357421875
 10
167.1953125
 20
-453.84765625
 10
167.8701171875
 20
-455.947265625
 10
170.32373046875
 20
-455.947265625
 97
        0
 75
     2
 76
     1
 98
        0
  0
ENDBLK
  5
106
330
103
100
AcDbEntity
  8
0
100
AcDbBlockEnd
  0
BLOCK
  5
112
330
110
100
AcDbEntity
  8
0
100
AcDbBlockBegin
  2
block 11
 70
     0
 71
     0
 10
0.0
 20
0.0
 30
0.0
  3
block 11
  1

  0
SPLINE
  5
114
330
110
100
AcDbEntity
  8
Text Kopie
370
     0
100
AcDbSpline
210
0.0
220
0.0
230
1.0
 70
    11
 71
     3
 72
    50
 73
    46
 74
     0
 42
0.0000000001
 43
0.0000000001
 40
0.0
 40
0.0
 40
0.0
 40
0.0
 40
1.0
 40
1.0
 40
1.0
 40
2.0
 40
2.0
 40
2.0
 40
3.0
 40
3.0
 40
3.0
 40
4.0
 40
4.0
 40
4.0
 40
5.0
 40
5.0
 40
5.0
 40
6.0
 40
6.0
 40
6.0
 40
7.0
 40
7.0
 40
7.0
 40
8.0
 40
8.0
 40
8.0
 40
9.0
 40
9.0
 40
9.0
 40
10.0
 40
10.0
 40
10.0
 40
11.0
 40
11.0
 40
11.0
 40
12.0
 40
12.0
 40
12.0
 40
13.0
 40
13.0
 40
13.0
 40
14.0
 40
14.0
 40
14.0
 40
15.0
 40
15.0
 40
15.0
 40
15.0
 10
112.6796875
 20
-411.291015625
 30
0.0
 10
113.47705078125
 20
-410.7509765625
 30
0.0
 10
114.45849609375
 20
-410.12109375
 30
0.0
 10
116.5751953125
 20
-410.12109375
 30
0.0
 10
119.48876953125
 20
-410.12109375
 30
0.0
 10
123.1689453125
 20
-412.1005859375
 30
0.0
 10
123.1689453125
 20
-416.990234375
 30
0.0
 10
123.1689453125
 20
-419.900390625
 30
0.0
 10
121.666015625
 20
-424.640625
 30
0.0
 10
115.25634765625
 20
-424.640625
 30
0.0
 10
111.8515625
 20
-424.640625
 30
0.0
 10
108.38623046875
 20
-422.66015625
 30
0.0
 10
108.17138671875
 20
-418.3701171875
 30
0.0
 10
108.17138671875
 20
-418.3701171875
 30
0.0
 10
112.46533203125
 20
-418.3701171875
 30
0.0
 10
112.46533203125
 20
-418.3701171875
 30
0.0
 10
112.6494140625
 20
-420.1103515625
 30
0.0
 10
113.60009765625
 20
-421.2802734375
 30
0.0
 10
115.50146484375
 20
-421.2802734375
 30
0.0
 10
117.556640625
 20
-421.2802734375
 30
0.0
 10
118.75244140625
 20
-419.5703125
 30
0.0
 10
118.75244140625
 20
-417.291015625
 30
0.0
 10
118.75244140625
 20
-415.400390625
 30
0.0
 10
117.83251953125
 20
-413.48046875
 30
0.0
 10
115.56298828125
 20
-413.48046875
 30
0.0
 10
114.97998046875
 20
-413.48046875
 30
0.0
 10
113.5078125
 20
-413.5107421875
 30
0.0
 10
112.6796875
 20
-415.0107421875
 30
0.0
 10
112.6796875
 20
-415.0107421875
 30
0.0
 10
108.84619140625
 20
-414.8310546875
 30
0.0
 10
108.84619140625
 20
-414.8310546875
 30
0.0
 10
108.84619140625
 20
-414.8310546875
 30
0.0
 10
110.34912109375
 20
-403.130859375
 30
0.0
 10
110.34912109375
 20
-403.130859375
 30
0.0
 10
110.34912109375
 20
-403.130859375
 30
0.0
 10
122.31005859375
 20
-403.130859375
 30
0.0
 10
122.31005859375
 20
-403.130859375
 30
0.0
 10
122.31005859375
 20
-403.130859375
 30
0.0
 10
122.31005859375
 20
-406.6708984375
 30
0.0
 10
122.31005859375
 20
-406.6708984375
 30
0.0
 10
122.31005859375
 20
-406.6708984375
 30
0.0
 10
113.44677734375
 20
-406.6708984375
 30
0.0
 10
113.44677734375
 20
-406.6708984375
 30
0.0
 10
113.44677734375
 20
-406.6708984375
 30
0.0
 10
112.6796875
 20
-411.291015625
 30
0.0
 10
112.6796875
 20
-411.291015625
 30
0.0
  0
HATCH
  5
115
330
110
100
AcDbEntity
  8
Text Kopie
 62
   250
420
  1842203
100
AcDbHatch
 10
0.0
 20
0.0
 30
0.0
210
0.0
220
0.0
230
1.0
  2
SOLID
 70
     1
 71
     0
 91
        1
 92
        1
 93
        1
 72
     4
 94
        3
 73
     0
 74
     1
 95
       50
 96
       46
 40
0.0
 40
0.0
 40
0.0
 40
0.0
 40
1.0
 40
1.0
 40
1.0
 40
2.0
 40
2.0
 40
2.0
 40
3.0
 40
3.0
 40
3.0
 40
4.0
 40
4.0
 40
4.0
 40
5.0
 40
5.0
 40
5.0
 40
6.0
 40
6.0
 40
6.0
 40
7.0
 40
7.0
 40
7.0
 40
8.0
 40
8.0
 40
8.0
 40
9.0
 40
9.0
 40
9.0
 40
10.0
 40
10.0
 40
10.0
 40
11.0
 40
11.0
 40
11.0
 40
12.0
 40
12.0
 40
12.0
 40
13.0
 40
13.0
 40
13.0
 40
14.0
 40
14.0
 40
14.0
 40
15.0
 40
15.0
 40
15.0
 40
15.0
 10
112.6796875
 20
-411.291015625
 10
113.47705078125
 20
-410.7509765625
 10
114.45849609375
 20
-410.12109375
 10
116.5751953125
 20
-410.12109375
 10
119.48876953125
 20
-410.12109375
 10
123.1689453125
 20
-412.1005859375
 10
123.1689453125
 20
-416.990234375
 10
123.1689453125
 20
-419.900390625
 10
121.666015625
 20
-424.640625
 10
115.25634765625
 20
-424.640625
 10
111.8515625
 20
-424.640625
 10
108.38623046875
 20
-422.66015625
 10
108.17138671875
 20
-418.3701171875
 10
108.17138671875
 20
-418.3701171875
 10
112.46533203125
 20
-418.3701171875
 10
112.46533203125
 20
-418.3701171875
 10
112.6494140625
 20
-420.1103515625
 10
113.60009765625
 20
-421.2802734375
 10
115.50146484375
 20
-421.2802734375
 10
117.556640625
 20
-421.2802734375
 10
118.75244140625
 20
-419.5703125
 10
118.75244140625
 20
-417.291015625
 10
118.75244140625
 20
-415.400390625
 10
117.83251953125
 20
-413.48046875
 10
115.56298828125
 20
-413.48046875
 10
114.97998046875
 20
-413.48046875
 10
113.5078125
 20
-413.5107421875
 10
112.6796875
 20
-415.0107421875
 10
112.6796875
 20
-415.0107421875
 10
108.84619140625
 20
-414.8310546875
 10
108.84619140625
 20
-414.8310546875
 10
108.84619140625
 20
-414.8310546875
 10
110.34912109375
 20
-403.130859375
 10
110.34912109375
 20
-403.130859375
 10
110.34912109375
 20
-403.130859375
 10
122.31005859375
 20
-403.130859375
 10
122.31005859375
 20
-403.130859375
 10
122.31005859375
 20
-403.130859375
 10
122.31005859375
 20
-406.6708984375
 10
122.31005859375
 20
-406.6708984375
 10
122.31005859375
 20
-406.6708984375
 10
113.44677734375
 20
-406.6708984375
 10
113.44677734375
 20
-406.6708984375
 10
113.44677734375
 20
-406.6708984375
 10
112.6796875
 20
-411.291015625
 10
112.6796875
 20
-411.291015625
 97
        0
 75
     2
 76
     1
 98
        0
  0
SPLINE
  5
116
330
110
100
AcDbEntity
  8
Text Kopie
370
     0
100
AcDbSpline
210
0.0
220
0.0
230
1.0
 70
    11
 71
     3
 72
    38
 73
    34
 74
     0
 42
0.0000000001
 43
0.0000000001
 40
0.0
 40
0.0
 40
0.0
 40
0.0
 40
1.0
 40
1.0
 40
1.0
 40
2.0
 40
2.0
 40
2.0
 40
3.0
 40
3.0
 40
3.0
 40
4.0
 40
4.0
 40
4.0
 40
5.0
 40
5.0
 40
5.0
 40
6.0
 40
6.0
 40
6.0
 40
7.0
 40
7.0
 40
7.0
 40
8.0
 40
8.0
 40
8.0
 40
9.0
 40
9.0
 40
9.0
 40
10.0
 40
10.0
 40
10.0
 40
11.0
 40
11.0
 40
11.0
 40
11.0
 10
130.00732421875
 20
-419.150390625
 30
0.0
 10
130.00732421875
 20
-419.150390625
 30
0.0
 10
130.00732421875
 20
-419.1806640625
 30
0.0
 10
130.00732421875
 20
-419.1806640625
 30
0.0
 10
130.25244140625
 20
-420.650390625
 30
0.0
 10
131.203125
 20
-421.2802734375
 30
0.0
 10
132.52197265625
 20
-421.2802734375
 30
0.0
 10
134.30078125
 20
-421.2802734375
 30
0.0
 10
136.080078125
 20
-419.810546875
 30
0.0
 10
136.1103515625
 20
-415.3408203125
 30
0.0
 10
136.1103515625
 20
-415.3408203125
 30
0.0
 10
136.04931640625
 20
-415.2802734375
 30
0.0
 10
136.04931640625
 20
-415.2802734375
 30
0.0
 10
135.06787109375
 20
-416.720703125
 30
0.0
 10
133.380859375
 20
-417.0810546875
 30
0.0
 10
131.90869140625
 20
-417.0810546875
 30
0.0
 10
127.73779296875
 20
-417.0810546875
 30
0.0
 10
125.314453125
 20
-413.990234375
 30
0.0
 10
125.314453125
 20
-410.4208984375
 30
0.0
 10
125.314453125
 20
-405.201171875
 30
0.0
 10
128.4736328125
 20
-402.771484375
 30
0.0
 10
132.73681640625
 20
-402.771484375
 30
0.0
 10
140.28173828125
 20
-402.771484375
 30
0.0
 10
140.404296875
 20
-410.720703125
 30
0.0
 10
140.404296875
 20
-413.720703125
 30
0.0
 10
140.404296875
 20
-421.970703125
 30
0.0
 10
136.41748046875
 20
-424.640625
 30
0.0
 10
132.49169921875
 20
-424.640625
 30
0.0
 10
128.7802734375
 20
-424.640625
 30
0.0
 10
126.11181640625
 20
-422.5400390625
 30
0.0
 10
125.744140625
 20
-419.150390625
 30
0.0
 10
125.744140625
 20
-419.150390625
 30
0.0
 10
130.00732421875
 20
-419.150390625
 30
0.0
 10
130.00732421875
 20
-419.150390625
 30
0.0
  0
SPLINE
  5
117
330
110
100
AcDbEntity
  8
Text Kopie
370
     0
100
AcDbSpline
210
0.0
220
0.0
230
1.0
 70
    11
 71
     3
 72
    17
 73
    13
 74
     0
 42
0.0000000001
 43
0.0000000001
 40
0.0
 40
0.0
 40
0.0
 40
0.0
 40
1.0
 40
1.0
 40
1.0
 40
2.0
 40
2.0
 40
2.0
 40
3.0
 40
3.0
 40
3.0
 40
4.0
 40
4.0
 40
4.0
 40
4.0
 10
132.82861328125
 20
-413.720703125
 30
0.0
 10
134.33154296875
 20
-413.720703125
 30
0.0
 10
135.98779296875
 20
-412.6708984375
 30
0.0
 10
135.98779296875
 20
-410.150390625
 30
0.0
 10
135.98779296875
 20
-407.720703125
 30
0.0
 10
134.91455078125
 20
-406.220703125
 30
0.0
 10
132.7060546875
 20
-406.220703125
 30
0.0
 10
131.60205078125
 20
-406.220703125
 30
0.0
 10
129.6083984375
 20
-406.7607421875
 30
0.0
 10
129.6083984375
 20
-409.8212890625
 30
0.0
 10
129.6083984375
 20
-413.03125
 30
0.0
 10
131.203125
 20
-413.720703125
 30
0.0
 10
132.82861328125
 20
-413.720703125
 30
0.0
  0
HATCH
  5
118
330
110
100
AcDbEntity
  8
Text Kopie
 62
   250
420
  1842203
100
AcDbHatch
 10
0.0
 20
0.0
 30
0.0
210
0.0
220
0.0
230
1.0
  2
SOLID
 70
     1
 71
     0
 91
        2
 92
        1
 93
        1
 72
     4
 94
        3
 73
     0
 74
     1
 95
       38
 96
       34
 40
0.0
 40
0.0
 40
0.0
 40
0.0
 40
1.0
 40
1.0
 40
1.0
 40
2.0
 40
2.0
 40
2.0
 40
3.0
 40
3.0
 40
3.0
 40
4.0
 40
4.0
 40
4.0
 40
5.0
 40
5.0
 40
5.0
 40
6.0
 40
6.0
 40
6.0
 40
7.0
 40
7.0
 40
7.0
 40
8.0
 40
8.0
 40
8.0
 40
9.0
 40
9.0
 40
9.0
 40
10.0
 40
10.0
 40
10.0
 40
11.0
 40
11.0
 40
11.0
 40
11.0
 10
130.00732421875
 20
-419.150390625
 10
130.00732421875
 20
-419.150390625
 10
130.00732421875
 20
-419.1806640625
 10
130.00732421875
 20
-419.1806640625
 10
130.25244140625
 20
-420.650390625
 10
131.203125
 20
-421.2802734375
 10
132.52197265625
 20
-421.2802734375
 10
134.30078125
 20
-421.2802734375
 10
136.080078125
 20
-419.810546875
 10
136.1103515625
 20
-415.3408203125
 10
136.1103515625
 20
-415.3408203125
 10
136.04931640625
 20
-415.2802734375
 10
136.04931640625
 20
-415.2802734375
 10
135.06787109375
 20
-416.720703125
 10
133.380859375
 20
-417.0810546875
 10
131.90869140625
 20
-417.0810546875
 10
127.73779296875
 20
-417.0810546875
 10
125.314453125
 20
-413.990234375
 10
125.314453125
 20
-410.4208984375
 10
125.314453125
 20
-405.201171875
 10
128.4736328125
 20
-402.771484375
 10
132.73681640625
 20
-402.771484375
 10
140.28173828125
 20
-402.771484375
 10
140.404296875
 20
-410.720703125
 10
140.404296875
 20
-413.720703125
 10
140.404296875
 20
-421.970703125
 10
136.41748046875
 20
-424.640625
 10
132.49169921875
 20
-424.640625
 10
128.7802734375
 20
-424.640625
 10
126.11181640625
 20
-422.5400390625
 10
125.744140625
 20
-419.150390625
 10
125.744140625
 20
-419.150390625
 10
130.00732421875
 20
-419.150390625
 10
130.00732421875
 20
-419.150390625
 97
        0
 92
        1
 93
        1
 72
     4
 94
        3
 73
     0
 74
     1
 95
       17
 96
       13
 40
0.0
 40
0.0
 40
0.0
 40
0.0
 40
1.0
 40
1.0
 40
1.0
 40
2.0
 40
2.0
 40
2.0
 40
3.0
 40
3.0
 40
3.0
 40
4.0
 40
4.0
 40
4.0
 40
4.0
 10
132.82861328125
 20
-413.720703125
 10
134.33154296875
 20
-413.720703125
 10
135.98779296875
 20
-412.6708984375
 10
135.98779296875
 20
-410.150390625
 10
135.98779296875
 20
-407.720703125
 10
134.91455078125
 20
-406.220703125
 10
132.7060546875
 20
-406.220703125
 10
131.60205078125
 20
-406.220703125
 10
129.6083984375
 20
-406.7607421875
 10
129.6083984375
 20
-409.8212890625
 10
129.6083984375
 20
-413.03125
 10
131.203125
 20
-413.720703125
 10
132.82861328125
 20
-413.720703125
 97
        0
 75
     2
 76
     1
 98
        0
  0
ENDBLK
  5
113
330
110
100
AcDbEntity
  8
0
100
AcDbBlockEnd
  0
BLOCK
  5
11B
330
119
100
AcDbEntity
  8
0
100
AcDbBlockBegin
  2
block 12
 70
     0
 71
     0
 10
0.0
 20
0.0
 30
0.0
  3
block 12
  1

  0
POLYLINE
  5
11D
330
119
100
AcDbEntity
  8
Text Kopie
370
     0
100
AcDb2dPolyline
 66
     1
 10
0.0
 20
0.0
 30
0.0
  0
VERTEX
  5
11E
330
11D
100
AcDbEntity
  8
Text Kopie
370
     0
100
AcDbVertex
100
AcDb2dVertex
 10
61.908203125
 20
-342.490234375
 30
0.0
  0
VERTEX
  5
11F
330
11D
100
AcDbEntity
  8
Text Kopie
370
     0
100
AcDbVertex
100
AcDb2dVertex
 10
61.908203125
 20
-344.912109375
 30
0.0
  0
VERTEX
  5
120
330
11D
100
AcDbEntity
  8
Text Kopie
370
     0
100
AcDbVertex
100
AcDb2dVertex
 10
66.6181640625
 20
-344.912109375
 30
0.0
  0
VERTEX
  5
121
330
11D
100
AcDbEntity
  8
Text Kopie
370
     0
100
AcDbVertex
100
AcDb2dVertex
 10
66.6181640625
 20
-349.20703125
 30
0.0
  0
VERTEX
  5
122
330
11D
100
AcDbEntity
  8
Text Kopie
370
     0
100
AcDbVertex
100
AcDb2dVertex
 10
61.908203125
 20
-349.20703125
 30
0.0
  0
VERTEX
  5
123
330
11D
100
AcDbEntity
  8
Text Kopie
370
     0
100
AcDbVertex
100
AcDb2dVertex
 10
61.908203125
 20
-357.7939453125
 30
0.0
  0
VERTEX
  5
124
330
11D
100
AcDbEntity
  8
Text Kopie
370
     0
100
AcDbVertex
100
AcDb2dVertex
 10
58.2783203125
 20
-357.7939453125
 30
0.0
  0
VERTEX
  5
125
330
11D
100
AcDbEntity
  8
Text Kopie
370
     0
100
AcDbVertex
100
AcDb2dVertex
 10
45.3193359375
 20
-349.7890625
 30
0.0
  0
VERTEX
  5
126
330
11D
100
AcDbEntity
  8
Text Kopie
370
     0
100
AcDbVertex
100
AcDb2dVertex
 10
45.3193359375
 20
-344.912109375
 30
0.0
  0
VERTEX
  5
127
330
11D
100
AcDbEntity
  8
Text Kopie
370
     0
100
AcDbVertex
100
AcDb2dVertex
 10
58.638671875
 20
-344.912109375
 30
0.0
  0
VERTEX
  5
128
330
11D
100
AcDbEntity
  8
Text Kopie
370
     0
100
AcDbVertex
100
AcDb2dVertex
 10
58.638671875
 20
-342.490234375
 30
0.0
  0
VERTEX
  5
129
330
11D
100
AcDbEntity
  8
Text Kopie
370
     0
100
AcDbVertex
100
AcDb2dVertex
 10
61.908203125
 20
-342.490234375
 30
0.0
  0
SEQEND
  5
12A
330
11D
100
AcDbEntity
  8
Text Kopie
370
     0
  0
SPLINE
  5
12B
330
119
100
AcDbEntity
  8
Text Kopie
370
     0
100
AcDbSpline
210
0.0
220
0.0
230
1.0
 70
    11
 71
     3
 72
    17
 73
    13
 74
     0
 42
0.0000000001
 43
0.0000000001
 40
0.0
 40
0.0
 40
0.0
 40
0.0
 40
1.0
 40
1.0
 40
1.0
 40
2.0
 40
2.0
 40
2.0
 40
3.0
 40
3.0
 40
3.0
 40
4.0
 40
4.0
 40
4.0
 40
4.0
 10
58.638671875
 20
-349.20703125
 30
0.0
 10
53.478515625
 20
-349.20703125
 30
0.0
 10
50.1484375
 20
-349.1142578125
 30
0.0
 10
49.4892578125
 20
-349.1142578125
 30
0.0
 10
49.4892578125
 20
-349.1142578125
 30
0.0
 10
49.4892578125
 20
-349.17578125
 30
0.0
 10
49.4892578125
 20
-349.17578125
 30
0.0
 10
49.4892578125
 20
-349.17578125
 30
0.0
 10
58.638671875
 20
-354.634765625
 30
0.0
 10
58.638671875
 20
-354.634765625
 30
0.0
 10
58.638671875
 20
-354.634765625
 30
0.0
 10
58.638671875
 20
-349.20703125
 30
0.0
 10
58.638671875
 20
-349.20703125
 30
0.0
  0
HATCH
  5
12C
330
119
100
AcDbEntity
  8
Text Kopie
 62
   250
420
  1842203
100
AcDbHatch
 10
0.0
 20
0.0
 30
0.0
210
0.0
220
0.0
230
1.0
  2
SOLID
 70
     1
 71
     0
 91
        2
 92
        1
 93
       11
 72
     1
 10
61.908203125
 20
-342.490234375
 11
61.908203125
 21
-344.912109375
 72
     1
 10
61.908203125
 20
-344.912109375
 11
66.6181640625
 21
-344.912109375
 72
     1
 10
66.6181640625
 20
-344.912109375
 11
66.6181640625
 21
-349.20703125
 72
     1
 10
66.6181640625
 20
-349.20703125
 11
61.908203125
 21
-349.20703125
 72
     1
 10
61.908203125
 20
-349.20703125
 11
61.908203125
 21
-357.7939453125
 72
     1
 10
61.908203125
 20
-357.7939453125
 11
58.2783203125
 21
-357.7939453125
 72
     1
 10
58.2783203125
 20
-357.7939453125
 11
45.3193359375
 21
-349.7890625
 72
     1
 10
45.3193359375
 20
-349.7890625
 11
45.3193359375
 21
-344.912109375
 72
     1
 10
45.3193359375
 20
-344.912109375
 11
58.638671875
 21
-344.912109375
 72
     1
 10
58.638671875
 20
-344.912109375
 11
58.638671875
 21
-342.490234375
 72
     1
 10
58.638671875
 20
-342.490234375
 11
61.908203125
 21
-342.490234375
 97
        0
 92
        1
 93
        1
 72
     4
 94
        3
 73
     0
 74
     1
 95
       17
 96
       13
 40
0.0
 40
0.0
 40
0.0
 40
0.0
 40
1.0
 40
1.0
 40
1.0
 40
2.0
 40
2.0
 40
2.0
 40
3.0
 40
3.0
 40
3.0
 40
4.0
 40
4.0
 40
4.0
 40
4.0
 10
58.638671875
 20
-349.20703125
 10
53.478515625
 20
-349.20703125
 10
50.1484375
 20
-349.1142578125
 10
49.4892578125
 20
-349.1142578125
 10
49.4892578125
 20
-349.1142578125
 10
49.4892578125
 20
-349.17578125
 10
49.4892578125
 20
-349.17578125
 10
49.4892578125
 20
-349.17578125
 10
58.638671875
 20
-354.634765625
 10
58.638671875
 20
-354.634765625
 10
58.638671875
 20
-354.634765625
 10
58.638671875
 20
-349.20703125
 10
58.638671875
 20
-349.20703125
 97
        0
 75
     2
 76
     1
 98
        0
  0
SPLINE
  5
12D
330
119
100
AcDbEntity
  8
Text Kopie
370
     0
100
AcDbSpline
210
0.0
220
0.0
230
1.0
 70
    11
 71
     3
 72
    29
 73
    25
 74
     0
 42
0.0000000001
 43
0.0000000001
 40
0.0
 40
0.0
 40
0.0
 40
0.0
 40
1.0
 40
1.0
 40
1.0
 40
2.0
 40
2.0
 40
2.0
 40
3.0
 40
3.0
 40
3.0
 40
4.0
 40
4.0
 40
4.0
 40
5.0
 40
5.0
 40
5.0
 40
6.0
 40
6.0
 40
6.0
 40
7.0
 40
7.0
 40
7.0
 40
8.0
 40
8.0
 40
8.0
 40
8.0
 10
49.0087890625
 20
-339.455078125
 30
0.0
 10
49.0087890625
 20
-339.455078125
 30
0.0
 10
49.0087890625
 20
-338.841796875
 30
0.0
 10
49.0087890625
 20
-338.841796875
 30
0.0
 10
49.0087890625
 20
-334.701171875
 30
0.0
 10
46.9091796875
 20
-333.5966796875
 30
0.0
 10
45.3193359375
 20
-333.50390625
 30
0.0
 10
45.3193359375
 20
-333.50390625
 30
0.0
 10
45.3193359375
 20
-329.9775390625
 30
0.0
 10
45.3193359375
 20
-329.9775390625
 30
0.0
 10
45.3193359375
 20
-329.9775390625
 30
0.0
 10
66.6181640625
 20
-329.9775390625
 30
0.0
 10
66.6181640625
 20
-329.9775390625
 30
0.0
 10
66.6181640625
 20
-329.9775390625
 30
0.0
 10
66.6181640625
 20
-334.271484375
 30
0.0
 10
66.6181640625
 20
-334.271484375
 30
0.0
 10
66.6181640625
 20
-334.271484375
 30
0.0
 10
51.94921875
 20
-334.271484375
 30
0.0
 10
51.94921875
 20
-334.271484375
 30
0.0
 10
51.94921875
 20
-334.271484375
 30
0.0
 10
51.94921875
 20
-339.455078125
 30
0.0
 10
51.94921875
 20
-339.455078125
 30
0.0
 10
51.94921875
 20
-339.455078125
 30
0.0
 10
49.0087890625
 20
-339.455078125
 30
0.0
 10
49.0087890625
 20
-339.455078125
 30
0.0
  0
HATCH
  5
12E
330
119
100
AcDbEntity
  8
Text Kopie
 62
   250
420
  1842203
100
AcDbHatch
 10
0.0
 20
0.0
 30
0.0
210
0.0
220
0.0
230
1.0
  2
SOLID
 70
     1
 71
     0
 91
        1
 92
        1
 93
        1
 72
     4
 94
        3
 73
     0
 74
     1
 95
       29
 96
       25
 40
0.0
 40
0.0
 40
0.0
 40
0.0
 40
1.0
 40
1.0
 40
1.0
 40
2.0
 40
2.0
 40
2.0
 40
3.0
 40
3.0
 40
3.0
 40
4.0
 40
4.0
 40
4.0
 40
5.0
 40
5.0
 40
5.0
 40
6.0
 40
6.0
 40
6.0
 40
7.0
 40
7.0
 40
7.0
 40
8.0
 40
8.0
 40
8.0
 40
8.0
 10
49.0087890625
 20
-339.455078125
 10
49.0087890625
 20
-339.455078125
 10
49.0087890625
 20
-338.841796875
 10
49.0087890625
 20
-338.841796875
 10
49.0087890625
 20
-334.701171875
 10
46.9091796875
 20
-333.5966796875
 10
45.3193359375
 20
-333.50390625
 10
45.3193359375
 20
-333.50390625
 10
45.3193359375
 20
-329.9775390625
 10
45.3193359375
 20
-329.9775390625
 10
45.3193359375
 20
-329.9775390625
 10
66.6181640625
 20
-329.9775390625
 10
66.6181640625
 20
-329.9775390625
 10
66.6181640625
 20
-329.9775390625
 10
66.6181640625
 20
-334.271484375
 10
66.6181640625
 20
-334.271484375
 10
66.6181640625
 20
-334.271484375
 10
51.94921875
 20
-334.271484375
 10
51.94921875
 20
-334.271484375
 10
51.94921875
 20
-334.271484375
 10
51.94921875
 20
-339.455078125
 10
51.94921875
 20
-339.455078125
 10
51.94921875
 20
-339.455078125
 10
49.0087890625
 20
-339.455078125
 10
49.0087890625
 20
-339.455078125
 97
        0
 75
     2
 76
     1
 98
        0
  0
ENDBLK
  5
11C
330
119
100
AcDbEntity
  8
0
100
AcDbBlockEnd
  0
BLOCK
  5
131
330
12F
100
AcDbEntity
  8
0
100
AcDbBlockBegin
  2
block 13
 70
     0
 71
     0
 10
0.0
 20
0.0
 30
0.0
  3
block 13
  1

  0
SPLINE
  5
133
330
12F
100
AcDbEntity
  8
Text Kopie
370
     0
100
AcDbSpline
210
0.0
220
0.0
230
1.0
 70
    11
 71
     3
 72
    26
 73
    22
 74
     0
 42
0.0000000001
 43
0.0000000001
 40
0.0
 40
0.0
 40
0.0
 40
0.0
 40
1.0
 40
1.0
 40
1.0
 40
2.0
 40
2.0
 40
2.0
 40
3.0
 40
3.0
 40
3.0
 40
4.0
 40
4.0
 40
4.0
 40
5.0
 40
5.0
 40
5.0
 40
6.0
 40
6.0
 40
6.0
 40
7.0
 40
7.0
 40
7.0
 40
7.0
 10
552.88671875
 20
-378.0380859375
 30
0.0
 10
550.8017578125
 20
-380.2578125
 30
0.0
 10
545.46484375
 20
-386.5576171875
 30
0.0
 10
544.943359375
 20
-395.7373046875
 30
0.0
 10
544.943359375
 20
-395.7373046875
 30
0.0
 10
540.52734375
 20
-395.7373046875
 30
0.0
 10
540.52734375
 20
-395.7373046875
 30
0.0
 10
540.9873046875
 20
-387.2177734375
 30
0.0
 10
546.4462890625
 20
-380.4375
 30
0.0
 10
548.287109375
 20
-378.517578125
 30
0.0
 10
548.287109375
 20
-378.517578125
 30
0.0
 10
537.4599609375
 20
-378.517578125
 30
0.0
 10
537.4599609375
 20
-378.517578125
 30
0.0
 10
537.4599609375
 20
-378.517578125
 30
0.0
 10
537.552734375
 20
-374.7978515625
 30
0.0
 10
537.552734375
 20
-374.7978515625
 30
0.0
 10
537.552734375
 20
-374.7978515625
 30
0.0
 10
552.88671875
 20
-374.7978515625
 30
0.0
 10
552.88671875
 20
-374.7978515625
 30
0.0
 10
552.88671875
 20
-374.7978515625
 30
0.0
 10
552.88671875
 20
-378.0380859375
 30
0.0
 10
552.88671875
 20
-378.0380859375
 30
0.0
  0
HATCH
  5
134
330
12F
100
AcDbEntity
  8
Text Kopie
 62
   250
420
  1842203
100
AcDbHatch
 10
0.0
 20
0.0
 30
0.0
210
0.0
220
0.0
230
1.0
  2
SOLID
 70
     1
 71
     0
 91
        1
 92
        1
 93
        1
 72
     4
 94
        3
 73
     0
 74
     1
 95
       26
 96
       22
 40
0.0
 40
0.0
 40
0.0
 40
0.0
 40
1.0
 40
1.0
 40
1.0
 40
2.0
 40
2.0
 40
2.0
 40
3.0
 40
3.0
 40
3.0
 40
4.0
 40
4.0
 40
4.0
 40
5.0
 40
5.0
 40
5.0
 40
6.0
 40
6.0
 40
6.0
 40
7.0
 40
7.0
 40
7.0
 40
7.0
 10
552.88671875
 20
-378.0380859375
 10
550.8017578125
 20
-380.2578125
 10
545.46484375
 20
-386.5576171875
 10
544.943359375
 20
-395.7373046875
 10
544.943359375
 20
-395.7373046875
 10
540.52734375
 20
-395.7373046875
 10
540.52734375
 20
-395.7373046875
 10
540.9873046875
 20
-387.2177734375
 10
546.4462890625
 20
-380.4375
 10
548.287109375
 20
-378.517578125
 10
548.287109375
 20
-378.517578125
 10
537.4599609375
 20
-378.517578125
 10
537.4599609375
 20
-378.517578125
 10
537.4599609375
 20
-378.517578125
 10
537.552734375
 20
-374.7978515625
 10
537.552734375
 20
-374.7978515625
 10
537.552734375
 20
-374.7978515625
 10
552.88671875
 20
-374.7978515625
 10
552.88671875
 20
-374.7978515625
 10
552.88671875
 20
-374.7978515625
 10
552.88671875
 20
-378.0380859375
 10
552.88671875
 20
-378.0380859375
 97
        0
 75
     2
 76
     1
 98
        0
  0
SPLINE
  5
135
330
12F
100
AcDbEntity
  8
Text Kopie
370
     0
100
AcDbSpline
210
0.0
220
0.0
230
1.0
 70
    11
 71
     3
 72
    29
 73
    25
 74
     0
 42
0.0000000001
 43
0.0000000001
 40
0.0
 40
0.0
 40
0.0
 40
0.0
 40
1.0
 40
1.0
 40
1.0
 40
2.0
 40
2.0
 40
2.0
 40
3.0
 40
3.0
 40
3.0
 40
4.0
 40
4.0
 40
4.0
 40
5.0
 40
5.0
 40
5.0
 40
6.0
 40
6.0
 40
6.0
 40
7.0
 40
7.0
 40
7.0
 40
8.0
 40
8.0
 40
8.0
 40
8.0
 10
555.861328125
 20
-378.1279296875
 30
0.0
 10
555.861328125
 20
-378.1279296875
 30
0.0
 10
556.474609375
 20
-378.1279296875
 30
0.0
 10
556.474609375
 20
-378.1279296875
 30
0.0
 10
560.615234375
 20
-378.1279296875
 30
0.0
 10
561.71875
 20
-376.0283203125
 30
0.0
 10
561.810546875
 20
-374.4384765625
 30
0.0
 10
561.810546875
 20
-374.4384765625
 30
0.0
 10
565.337890625
 20
-374.4384765625
 30
0.0
 10
565.337890625
 20
-374.4384765625
 30
0.0
 10
565.337890625
 20
-374.4384765625
 30
0.0
 10
565.337890625
 20
-395.7373046875
 30
0.0
 10
565.337890625
 20
-395.7373046875
 30
0.0
 10
565.337890625
 20
-395.7373046875
 30
0.0
 10
561.0439453125
 20
-395.7373046875
 30
0.0
 10
561.0439453125
 20
-395.7373046875
 30
0.0
 10
561.0439453125
 20
-395.7373046875
 30
0.0
 10
561.0439453125
 20
-381.068359375
 30
0.0
 10
561.0439453125
 20
-381.068359375
 30
0.0
 10
561.0439453125
 20
-381.068359375
 30
0.0
 10
555.861328125
 20
-381.068359375
 30
0.0
 10
555.861328125
 20
-381.068359375
 30
0.0
 10
555.861328125
 20
-381.068359375
 30
0.0
 10
555.861328125
 20
-378.1279296875
 30
0.0
 10
555.861328125
 20
-378.1279296875
 30
0.0
  0
HATCH
  5
136
330
12F
100
AcDbEntity
  8
Text Kopie
 62
   250
420
  1842203
100
AcDbHatch
 10
0.0
 20
0.0
 30
0.0
210
0.0
220
0.0
230
1.0
  2
SOLID
 70
     1
 71
     0
 91
        1
 92
        1
 93
        1
 72
     4
 94
        3
 73
     0
 74
     1
 95
       29
 96
       25
 40
0.0
 40
0.0
 40
0.0
 40
0.0
 40
1.0
 40
1.0
 40
1.0
 40
2.0
 40
2.0
 40
2.0
 40
3.0
 40
3.0
 40
3.0
 40
4.0
 40
4.0
 40
4.0
 40
5.0
 40
5.0
 40
5.0
 40
6.0
 40
6.0
 40
6.0
 40
7.0
 40
7.0
 40
7.0
 40
8.0
 40
8.0
 40
8.0
 40
8.0
 10
555.861328125
 20
-378.1279296875
 10
555.861328125
 20
-378.1279296875
 10
556.474609375
 20
-378.1279296875
 10
556.474609375
 20
-378.1279296875
 10
560.615234375
 20
-378.1279296875
 10
561.71875
 20
-376.0283203125
 10
561.810546875
 20
-374.4384765625
 10
561.810546875
 20
-374.4384765625
 10
565.337890625
 20
-374.4384765625
 10
565.337890625
 20
-374.4384765625
 10
565.337890625
 20
-374.4384765625
 10
565.337890625
 20
-395.7373046875
 10
565.337890625
 20
-395.7373046875
 10
565.337890625
 20
-395.7373046875
 10
561.0439453125
 20
-395.7373046875
 10
561.0439453125
 20
-395.7373046875
 10
561.0439453125
 20
-395.7373046875
 10
561.0439453125
 20
-381.068359375
 10
561.0439453125
 20
-381.068359375
 10
561.0439453125
 20
-381.068359375
 10
555.861328125
 20
-381.068359375
 10
555.861328125
 20
-381.068359375
 10
555.861328125
 20
-381.068359375
 10
555.861328125
 20
-378.1279296875
 10
555.861328125
 20
-378.1279296875
 97
        0
 75
     2
 76
     1
 98
        0
  0
ENDBLK
  5
132
330
12F
100
AcDbEntity
  8
0
100
AcDbBlockEnd
  0
BLOCK
  5
139
330
137
100
AcDbEntity
  8
0
100
AcDbBlockBegin
  2
block 14
 70
     0
 71
     0
 10
0.0
 20
0.0
 30
0.0
  3
block 14
  1

  0
SPLINE
  5
13B
330
137
100
AcDbEntity
  8
Text Kopie
370
     0
100
AcDbSpline
210
0.0
220
0.0
230
1.0
 70
    11
 71
     3
 72
    38
 73
    34
 74
     0
 42
0.0000000001
 43
0.0000000001
 40
0.0
 40
0.0
 40
0.0
 40
0.0
 40
1.0
 40
1.0
 40
1.0
 40
2.0
 40
2.0
 40
2.0
 40
3.0
 40
3.0
 40
3.0
 40
4.0
 40
4.0
 40
4.0
 40
5.0
 40
5.0
 40
5.0
 40
6.0
 40
6.0
 40
6.0
 40
7.0
 40
7.0
 40
7.0
 40
8.0
 40
8.0
 40
8.0
 40
9.0
 40
9.0
 40
9.0
 40
10.0
 40
10.0
 40
10.0
 40
11.0
 40
11.0
 40
11.0
 40
11.0
 10
562.6240234375
 20
-293.4111328125
 30
0.0
 10
561.423828125
 20
-293.5341796875
 30
0.0
 10
560.583984375
 20
-294.3310546875
 30
0.0
 10
560.583984375
 20
-295.92578125
 30
0.0
 10
560.583984375
 20
-298.716796875
 30
0.0
 10
563.7041015625
 20
-299.361328125
 30
0.0
 10
566.4638671875
 20
-299.5146484375
 30
0.0
 10
566.4638671875
 20
-299.5146484375
 30
0.0
 10
566.5234375
 20
-299.453125
 30
0.0
 10
566.5234375
 20
-299.453125
 30
0.0
 10
565.744140625
 20
-298.8701171875
 30
0.0
 10
564.75390625
 20
-297.796875
 30
0.0
 10
564.75390625
 20
-295.3740234375
 30
0.0
 10
564.75390625
 20
-290.865234375
 30
0.0
 10
568.1435546875
 20
-288.71875
 30
0.0
 10
571.32421875
 20
-288.71875
 30
0.0
 10
575.9736328125
 20
-288.71875
 30
0.0
 10
579.09375
 20
-291.63232421875
 30
0.0
 10
579.09375
 20
-295.833984375
 30
0.0
 10
579.09375
 20
-302.427734375
 30
0.0
 10
573.693359375
 20
-303.7158203125
 30
0.0
 10
568.3837890625
 20
-303.7158203125
 30
0.0
 10
564.333984375
 20
-303.7158203125
 30
0.0
 10
557.224609375
 20
-303.1640625
 30
0.0
 10
557.224609375
 20
-295.619140625
 30
0.0
 10
557.224609375
 20
-294.7294921875
 30
0.0
 10
557.5546875
 20
-292.2451171875
 30
0.0
 10
558.6044921875
 20
-291.171875
 30
0.0
 10
559.744140625
 20
-289.97607421875
 30
0.0
 10
560.3740234375
 20
-289.54638671875
 30
0.0
 10
562.6240234375
 20
-289.14794921875
 30
0.0
 10
562.6240234375
 20
-289.14794921875
 30
0.0
 10
562.6240234375
 20
-293.4111328125
 30
0.0
 10
562.6240234375
 20
-293.4111328125
 30
0.0
  0
SPLINE
  5
13C
330
137
100
AcDbEntity
  8
Text Kopie
370
     0
100
AcDbSpline
210
0.0
220
0.0
230
1.0
 70
    11
 71
     3
 72
    17
 73
    13
 74
     0
 42
0.0000000001
 43
0.0000000001
 40
0.0
 40
0.0
 40
0.0
 40
0.0
 40
1.0
 40
1.0
 40
1.0
 40
2.0
 40
2.0
 40
2.0
 40
3.0
 40
3.0
 40
3.0
 40
4.0
 40
4.0
 40
4.0
 40
4.0
 10
568.1142578125
 20
-296.140625
 30
0.0
 10
568.1142578125
 20
-297.7666015625
 30
0.0
 10
569.103515625
 20
-299.4228515625
 30
0.0
 10
571.7734375
 20
-299.4228515625
 30
0.0
 10
574.083984375
 20
-299.4228515625
 30
0.0
 10
575.7333984375
 20
-298.0732421875
 30
0.0
 10
575.7333984375
 20
-296.017578125
 30
0.0
 10
575.7333984375
 20
-294.4541015625
 30
0.0
 10
574.5634765625
 20
-293.0126953125
 30
0.0
 10
571.68359375
 20
-293.0126953125
 30
0.0
 10
568.9833984375
 20
-293.0126953125
 30
0.0
 10
568.1142578125
 20
-294.791015625
 30
0.0
 10
568.1142578125
 20
-296.140625
 30
0.0
  0
HATCH
  5
13D
330
137
100
AcDbEntity
  8
Text Kopie
 62
   250
420
  1842203
100
AcDbHatch
 10
0.0
 20
0.0
 30
0.0
210
0.0
220
0.0
230
1.0
  2
SOLID
 70
     1
 71
     0
 91
        2
 92
        1
 93
        1
 72
     4
 94
        3
 73
     0
 74
     1
 95
       38
 96
       34
 40
0.0
 40
0.0
 40
0.0
 40
0.0
 40
1.0
 40
1.0
 40
1.0
 40
2.0
 40
2.0
 40
2.0
 40
3.0
 40
3.0
 40
3.0
 40
4.0
 40
4.0
 40
4.0
 40
5.0
 40
5.0
 40
5.0
 40
6.0
 40
6.0
 40
6.0
 40
7.0
 40
7.0
 40
7.0
 40
8.0
 40
8.0
 40
8.0
 40
9.0
 40
9.0
 40
9.0
 40
10.0
 40
10.0
 40
10.0
 40
11.0
 40
11.0
 40
11.0
 40
11.0
 10
562.6240234375
 20
-293.4111328125
 10
561.423828125
 20
-293.5341796875
 10
560.583984375
 20
-294.3310546875
 10
560.583984375
 20
-295.92578125
 10
560.583984375
 20
-298.716796875
 10
563.7041015625
 20
-299.361328125
 10
566.4638671875
 20
-299.5146484375
 10
566.4638671875
 20
-299.5146484375
 10
566.5234375
 20
-299.453125
 10
566.5234375
 20
-299.453125
 10
565.744140625
 20
-298.8701171875
 10
564.75390625
 20
-297.796875
 10
564.75390625
 20
-295.3740234375
 10
564.75390625
 20
-290.865234375
 10
568.1435546875
 20
-288.71875
 10
571.32421875
 20
-288.71875
 10
575.9736328125
 20
-288.71875
 10
579.09375
 20
-291.63232421875
 10
579.09375
 20
-295.833984375
 10
579.09375
 20
-302.427734375
 10
573.693359375
 20
-303.7158203125
 10
568.3837890625
 20
-303.7158203125
 10
564.333984375
 20
-303.7158203125
 10
557.224609375
 20
-303.1640625
 10
557.224609375
 20
-295.619140625
 10
557.224609375
 20
-294.7294921875
 10
557.5546875
 20
-292.2451171875
 10
558.6044921875
 20
-291.171875
 10
559.744140625
 20
-289.97607421875
 10
560.3740234375
 20
-289.54638671875
 10
562.6240234375
 20
-289.14794921875
 10
562.6240234375
 20
-289.14794921875
 10
562.6240234375
 20
-293.4111328125
 10
562.6240234375
 20
-293.4111328125
 97
        0
 92
        1
 93
        1
 72
     4
 94
        3
 73
     0
 74
     1
 95
       17
 96
       13
 40
0.0
 40
0.0
 40
0.0
 40
0.0
 40
1.0
 40
1.0
 40
1.0
 40
2.0
 40
2.0
 40
2.0
 40
3.0
 40
3.0
 40
3.0
 40
4.0
 40
4.0
 40
4.0
 40
4.0
 10
568.1142578125
 20
-296.140625
 10
568.1142578125
 20
-297.7666015625
 10
569.103515625
 20
-299.4228515625
 10
571.7734375
 20
-299.4228515625
 10
574.083984375
 20
-299.4228515625
 10
575.7333984375
 20
-298.0732421875
 10
575.7333984375
 20
-296.017578125
 10
575.7333984375
 20
-294.4541015625
 10
574.5634765625
 20
-293.0126953125
 10
571.68359375
 20
-293.0126953125
 10
568.9833984375
 20
-293.0126953125
 10
568.1142578125
 20
-294.791015625
 10
568.1142578125
 20
-296.140625
 97
        0
 75
     2
 76
     1
 98
        0
  0
SPLINE
  5
13E
330
137
100
AcDbEntity
  8
Text Kopie
370
     0
100
AcDbSpline
210
0.0
220
0.0
230
1.0
 70
    11
 71
     3
 72
    17
 73
    13
 74
     0
 42
0.0000000001
 43
0.0000000001
 40
0.0
 40
0.0
 40
0.0
 40
0.0
 40
1.0
 40
1.0
 40
1.0
 40
2.0
 40
2.0
 40
2.0
 40
3.0
 40
3.0
 40
3.0
 40
4.0
 40
4.0
 40
4.0
 40
4.0
 10
557.224609375
 20
-279.08935546875
 30
0.0
 10
557.224609375
 20
-273.96728515625
 30
0.0
 10
560.673828125
 20
-271.54443359375
 30
0.0
 10
568.1435546875
 20
-271.54443359375
 30
0.0
 10
575.61328125
 20
-271.54443359375
 30
0.0
 10
579.09375
 20
-273.96728515625
 30
0.0
 10
579.09375
 20
-279.08935546875
 30
0.0
 10
579.09375
 20
-284.21142578125
 30
0.0
 10
575.61328125
 20
-286.63427734375
 30
0.0
 10
568.1435546875
 20
-286.63427734375
 30
0.0
 10
560.673828125
 20
-286.63427734375
 30
0.0
 10
557.224609375
 20
-284.21142578125
 30
0.0
 10
557.224609375
 20
-279.08935546875
 30
0.0
  0
SPLINE
  5
13F
330
137
100
AcDbEntity
  8
Text Kopie
370
     0
100
AcDbSpline
210
0.0
220
0.0
230
1.0
 70
    11
 71
     3
 72
    17
 73
    13
 74
     0
 42
0.0000000001
 43
0.0000000001
 40
0.0
 40
0.0
 40
0.0
 40
0.0
 40
1.0
 40
1.0
 40
1.0
 40
2.0
 40
2.0
 40
2.0
 40
3.0
 40
3.0
 40
3.0
 40
4.0
 40
4.0
 40
4.0
 40
4.0
 10
575.7333984375
 20
-279.08935546875
 30
0.0
 10
575.7333984375
 20
-276.6357421875
 30
0.0
 10
573.6337890625
 20
-275.9609375
 30
0.0
 10
568.1435546875
 20
-275.9609375
 30
0.0
 10
562.654296875
 20
-275.9609375
 30
0.0
 10
560.583984375
 20
-276.6357421875
 30
0.0
 10
560.583984375
 20
-279.08935546875
 30
0.0
 10
560.583984375
 20
-281.54296875
 30
0.0
 10
562.654296875
 20
-282.2177734375
 30
0.0
 10
568.1435546875
 20
-282.2177734375
 30
0.0
 10
573.6337890625
 20
-282.2177734375
 30
0.0
 10
575.7333984375
 20
-281.54296875
 30
0.0
 10
575.7333984375
 20
-279.08935546875
 30
0.0
  0
HATCH
  5
140
330
137
100
AcDbEntity
  8
Text Kopie
 62
   250
420
  1842203
100
AcDbHatch
 10
0.0
 20
0.0
 30
0.0
210
0.0
220
0.0
230
1.0
  2
SOLID
 70
     1
 71
     0
 91
        2
 92
        1
 93
        1
 72
     4
 94
        3
 73
     0
 74
     1
 95
       17
 96
       13
 40
0.0
 40
0.0
 40
0.0
 40
0.0
 40
1.0
 40
1.0
 40
1.0
 40
2.0
 40
2.0
 40
2.0
 40
3.0
 40
3.0
 40
3.0
 40
4.0
 40
4.0
 40
4.0
 40
4.0
 10
557.224609375
 20
-279.08935546875
 10
557.224609375
 20
-273.96728515625
 10
560.673828125
 20
-271.54443359375
 10
568.1435546875
 20
-271.54443359375
 10
575.61328125
 20
-271.54443359375
 10
579.09375
 20
-273.96728515625
 10
579.09375
 20
-279.08935546875
 10
579.09375
 20
-284.21142578125
 10
575.61328125
 20
-286.63427734375
 10
568.1435546875
 20
-286.63427734375
 10
560.673828125
 20
-286.63427734375
 10
557.224609375
 20
-284.21142578125
 10
557.224609375
 20
-279.08935546875
 97
        0
 92
        1
 93
        1
 72
     4
 94
        3
 73
     0
 74
     1
 95
       17
 96
       13
 40
0.0
 40
0.0
 40
0.0
 40
0.0
 40
1.0
 40
1.0
 40
1.0
 40
2.0
 40
2.0
 40
2.0
 40
3.0
 40
3.0
 40
3.0
 40
4.0
 40
4.0
 40
4.0
 40
4.0
 10
575.7333984375
 20
-279.08935546875
 10
575.7333984375
 20
-276.6357421875
 10
573.6337890625
 20
-275.9609375
 10
568.1435546875
 20
-275.9609375
 10
562.654296875
 20
-275.9609375
 10
560.583984375
 20
-276.6357421875
 10
560.583984375
 20
-279.08935546875
 10
560.583984375
 20
-281.54296875
 10
562.654296875
 20
-282.2177734375
 10
568.1435546875
 20
-282.2177734375
 10
573.6337890625
 20
-282.2177734375
 10
575.7333984375
 20
-281.54296875
 10
575.7333984375
 20
-279.08935546875
 97
        0
 75
     2
 76
     1
 98
        0
  0
SPLINE
  5
141
330
137
100
AcDbEntity
  8
Text Kopie
370
     0
100
AcDbSpline
210
0.0
220
0.0
230
1.0
 70
    11
 71
     3
 72
    17
 73
    13
 74
     0
 42
0.0000000001
 43
0.0000000001
 40
0.0
 40
0.0
 40
0.0
 40
0.0
 40
1.0
 40
1.0
 40
1.0
 40
2.0
 40
2.0
 40
2.0
 40
3.0
 40
3.0
 40
3.0
 40
4.0
 40
4.0
 40
4.0
 40
4.0
 10
557.224609375
 20
-262.03857421875
 30
0.0
 10
557.224609375
 20
-256.91650390625
 30
0.0
 10
560.673828125
 20
-254.49365234375
 30
0.0
 10
568.1435546875
 20
-254.49365234375
 30
0.0
 10
575.61328125
 20
-254.49365234375
 30
0.0
 10
579.09375
 20
-256.91650390625
 30
0.0
 10
579.09375
 20
-262.03857421875
 30
0.0
 10
579.09375
 20
-267.16064453125
 30
0.0
 10
575.61328125
 20
-269.58349609375
 30
0.0
 10
568.1435546875
 20
-269.58349609375
 30
0.0
 10
560.673828125
 20
-269.58349609375
 30
0.0
 10
557.224609375
 20
-267.16064453125
 30
0.0
 10
557.224609375
 20
-262.03857421875
 30
0.0
  0
SPLINE
  5
142
330
137
100
AcDbEntity
  8
Text Kopie
370
     0
100
AcDbSpline
210
0.0
220
0.0
230
1.0
 70
    11
 71
     3
 72
    17
 73
    13
 74
     0
 42
0.0000000001
 43
0.0000000001
 40
0.0
 40
0.0
 40
0.0
 40
0.0
 40
1.0
 40
1.0
 40
1.0
 40
2.0
 40
2.0
 40
2.0
 40
3.0
 40
3.0
 40
3.0
 40
4.0
 40
4.0
 40
4.0
 40
4.0
 10
575.7333984375
 20
-262.03857421875
 30
0.0
 10
575.7333984375
 20
-259.5849609375
 30
0.0
 10
573.6337890625
 20
-258.91015625
 30
0.0
 10
568.1435546875
 20
-258.91015625
 30
0.0
 10
562.654296875
 20
-258.91015625
 30
0.0
 10
560.583984375
 20
-259.5849609375
 30
0.0
 10
560.583984375
 20
-262.03857421875
 30
0.0
 10
560.583984375
 20
-264.4921875
 30
0.0
 10
562.654296875
 20
-265.1669921875
 30
0.0
 10
568.1435546875
 20
-265.1669921875
 30
0.0
 10
573.6337890625
 20
-265.1669921875
 30
0.0
 10
575.7333984375
 20
-264.4921875
 30
0.0
 10
575.7333984375
 20
-262.03857421875
 30
0.0
  0
HATCH
  5
143
330
137
100
AcDbEntity
  8
Text Kopie
 62
   250
420
  1842203
100
AcDbHatch
 10
0.0
 20
0.0
 30
0.0
210
0.0
220
0.0
230
1.0
  2
SOLID
 70
     1
 71
     0
 91
        2
 92
        1
 93
        1
 72
     4
 94
        3
 73
     0
 74
     1
 95
       17
 96
       13
 40
0.0
 40
0.0
 40
0.0
 40
0.0
 40
1.0
 40
1.0
 40
1.0
 40
2.0
 40
2.0
 40
2.0
 40
3.0
 40
3.0
 40
3.0
 40
4.0
 40
4.0
 40
4.0
 40
4.0
 10
557.224609375
 20
-262.03857421875
 10
557.224609375
 20
-256.91650390625
 10
560.673828125
 20
-254.49365234375
 10
568.1435546875
 20
-254.49365234375
 10
575.61328125
 20
-254.49365234375
 10
579.09375
 20
-256.91650390625
 10
579.09375
 20
-262.03857421875
 10
579.09375
 20
-267.16064453125
 10
575.61328125
 20
-269.58349609375
 10
568.1435546875
 20
-269.58349609375
 10
560.673828125
 20
-269.58349609375
 10
557.224609375
 20
-267.16064453125
 10
557.224609375
 20
-262.03857421875
 97
        0
 92
        1
 93
        1
 72
     4
 94
        3
 73
     0
 74
     1
 95
       17
 96
       13
 40
0.0
 40
0.0
 40
0.0
 40
0.0
 40
1.0
 40
1.0
 40
1.0
 40
2.0
 40
2.0
 40
2.0
 40
3.0
 40
3.0
 40
3.0
 40
4.0
 40
4.0
 40
4.0
 40
4.0
 10
575.7333984375
 20
-262.03857421875
 10
575.7333984375
 20
-259.5849609375
 10
573.6337890625
 20
-258.91015625
 10
568.1435546875
 20
-258.91015625
 10
562.654296875
 20
-258.91015625
 10
560.583984375
 20
-259.5849609375
 10
560.583984375
 20
-262.03857421875
 10
560.583984375
 20
-264.4921875
 10
562.654296875
 20
-265.1669921875
 10
568.1435546875
 20
-265.1669921875
 10
573.6337890625
 20
-265.1669921875
 10
575.7333984375
 20
-264.4921875
 10
575.7333984375
 20
-262.03857421875
 97
        0
 75
     2
 76
     1
 98
        0
  0
ENDBLK
  5
13A
330
137
100
AcDbEntity
  8
0
100
AcDbBlockEnd
  0
BLOCK
  5
146
330
144
100
AcDbEntity
  8
0
100
AcDbBlockBegin
  2
block 15
 70
     0
 71
     0
 10
0.0
 20
0.0
 30
0.0
  3
block 15
  1

  0
INSERT
  5
149
330
144
100
AcDbEntity
  8
Text Kopie
100
AcDbBlockReference
  2
block 16
 10
0.0
 20
0.0
 30
0.0
  0
ENDBLK
  5
147
330
144
100
AcDbEntity
  8
0
100
AcDbBlockEnd
  0
BLOCK
  5
14A
330
148
100
AcDbEntity
  8
0
100
AcDbBlockBegin
  2
block 16
 70
     0
 71
     0
 10
0.0
 20
0.0
 30
0.0
  3
block 16
  1

  0
INSERT
  5
14D
330
148
100
AcDbEntity
  8
Text Kopie
100
AcDbBlockReference
  2
block 17
 10
0.0
 20
0.0
 30
0.0
  0
ENDBLK
  5
14B
330
148
100
AcDbEntity
  8
0
100
AcDbBlockEnd
  0
BLOCK
  5
14E
330
14C
100
AcDbEntity
  8
0
100
AcDbBlockBegin
  2
block 17
 70
     0
 71
     0
 10
0.0
 20
0.0
 30
0.0
  3
block 17
  1

  0
INSERT
  5
151
330
14C
100
AcDbEntity
  8
Text Kopie
100
AcDbBlockReference
  2
block 18
 10
0.0
 20
0.0
 30
0.0
  0
ENDBLK
  5
14F
330
14C
100
AcDbEntity
  8
0
100
AcDbBlockEnd
  0
BLOCK
  5
152
330
150
100
AcDbEntity
  8
0
100
AcDbBlockBegin
  2
block 18
 70
     0
 71
     0
 10
0.0
 20
0.0
 30
0.0
  3
block 18
  1

  0
SPLINE
  5
154
330
150
100
AcDbEntity
  8
Text Kopie
370
     0
100
AcDbSpline
210
0.0
220
0.0
230
1.0
 70
    11
 71
     3
 72
    41
 73
    37
 74
     0
 42
0.0000000001
 43
0.0000000001
 40
0.0
 40
0.0
 40
0.0
 40
0.0
 40
1.0
 40
1.0
 40
1.0
 40
2.0
 40
2.0
 40
2.0
 40
3.0
 40
3.0
 40
3.0
 40
4.0
 40
4.0
 40
4.0
 40
5.0
 40
5.0
 40
5.0
 40
6.0
 40
6.0
 40
6.0
 40
7.0
 40
7.0
 40
7.0
 40
8.0
 40
8.0
 40
8.0
 40
9.0
 40
9.0
 40
9.0
 40
10.0
 40
10.0
 40
10.0
 40
11.0
 40
11.0
 40
11.0
 40
12.0
 40
12.0
 40
12.0
 40
12.0
 10
369.873046875
 20
-302.30078125
 30
0.0
 10
371.193359375
 20
-304.0107421875
 30
0.0
 10
372.09375
 20
-306.4404296875
 30
0.0
 10
372.09375
 20
-309.98046875
 30
0.0
 10
372.09375
 20
-320.08984375
 30
0.0
 10
364.59375
 20
-321.3203125
 30
0.0
 10
361.744140625
 20
-321.3203125
 30
0.0
 10
360.154296875
 20
-321.3203125
 30
0.0
 10
357.154296875
 20
-320.9599609375
 30
0.0
 10
354.7841796875
 20
-318.8603515625
 30
0.0
 10
354.7841796875
 20
-318.8603515625
 30
0.0
 10
352.32421875
 20
-321.5595703125
 30
0.0
 10
352.32421875
 20
-321.5595703125
 30
0.0
 10
352.32421875
 20
-321.5595703125
 30
0.0
 10
351.064453125
 20
-320.419921875
 30
0.0
 10
351.064453125
 20
-320.419921875
 30
0.0
 10
351.064453125
 20
-320.419921875
 30
0.0
 10
353.6142578125
 20
-317.6298828125
 30
0.0
 10
353.6142578125
 20
-317.6298828125
 30
0.0
 10
352.32421875
 20
-315.98046875
 30
0.0
 10
351.39453125
 20
-313.5205078125
 30
0.0
 10
351.39453125
 20
-309.98046875
 30
0.0
 10
351.39453125
 20
-299.87109375
 30
0.0
 10
358.8935546875
 20
-298.640625
 30
0.0
 10
361.744140625
 20
-298.640625
 30
0.0
 10
363.333984375
 20
-298.640625
 30
0.0
 10
366.3037109375
 20
-299.03125
 30
0.0
 10
368.703125
 20
-301.0703125
 30
0.0
 10
368.703125
 20
-301.0703125
 30
0.0
 10
371.1337890625
 20
-298.4013671875
 30
0.0
 10
371.1337890625
 20
-298.4013671875
 30
0.0
 10
371.1337890625
 20
-298.4013671875
 30
0.0
 10
372.3935546875
 20
-299.541015625
 30
0.0
 10
372.3935546875
 20
-299.541015625
 30
0.0
 10
372.3935546875
 20
-299.541015625
 30
0.0
 10
369.873046875
 20
-302.30078125
 30
0.0
 10
369.873046875
 20
-302.30078125
 30
0.0
  0
SPLINE
  5
155
330
150
100
AcDbEntity
  8
Text Kopie
370
     0
100
AcDbSpline
210
0.0
220
0.0
230
1.0
 70
    11
 71
     3
 72
    17
 73
    13
 74
     0
 42
0.0000000001
 43
0.0000000001
 40
0.0
 40
0.0
 40
0.0
 40
0.0
 40
1.0
 40
1.0
 40
1.0
 40
2.0
 40
2.0
 40
2.0
 40
3.0
 40
3.0
 40
3.0
 40
4.0
 40
4.0
 40
4.0
 40
4.0
 10
365.8232421875
 20
-304.220703125
 30
0.0
 10
364.59375
 20
-302.87109375
 30
0.0
 10
363.033203125
 20
-302.451171875
 30
0.0
 10
361.744140625
 20
-302.451171875
 30
0.0
 10
359.3134765625
 20
-302.451171875
 30
0.0
 10
355.8935546875
 20
-303.951171875
 30
0.0
 10
355.8935546875
 20
-309.98046875
 30
0.0
 10
355.8935546875
 20
-311.7802734375
 30
0.0
 10
356.1943359375
 20
-313.16015625
 30
0.0
 10
356.7041015625
 20
-314.2099609375
 30
0.0
 10
356.7041015625
 20
-314.2099609375
 30
0.0
 10
365.8232421875
 20
-304.220703125
 30
0.0
 10
365.8232421875
 20
-304.220703125
 30
0.0
  0
SPLINE
  5
156
330
150
100
AcDbEntity
  8
Text Kopie
370
     0
100
AcDbSpline
210
0.0
220
0.0
230
1.0
 70
    11
 71
     3
 72
    17
 73
    13
 74
     0
 42
0.0000000001
 43
0.0000000001
 40
0.0
 40
0.0
 40
0.0
 40
0.0
 40
1.0
 40
1.0
 40
1.0
 40
2.0
 40
2.0
 40
2.0
 40
3.0
 40
3.0
 40
3.0
 40
4.0
 40
4.0
 40
4.0
 40
4.0
 10
357.6337890625
 20
-315.7099609375
 30
0.0
 10
358.833984375
 20
-317.060546875
 30
0.0
 10
360.423828125
 20
-317.509765625
 30
0.0
 10
361.744140625
 20
-317.509765625
 30
0.0
 10
364.173828125
 20
-317.509765625
 30
0.0
 10
367.59375
 20
-316.009765625
 30
0.0
 10
367.59375
 20
-309.98046875
 30
0.0
 10
367.59375
 20
-308.150390625
 30
0.0
 10
367.2939453125
 20
-306.740234375
 30
0.0
 10
366.75390625
 20
-305.720703125
 30
0.0
 10
366.75390625
 20
-305.720703125
 30
0.0
 10
357.6337890625
 20
-315.7099609375
 30
0.0
 10
357.6337890625
 20
-315.7099609375
 30
0.0
  0
HATCH
  5
157
330
150
100
AcDbEntity
  8
Text Kopie
 62
   250
420
  1842203
100
AcDbHatch
 10
0.0
 20
0.0
 30
0.0
210
0.0
220
0.0
230
1.0
  2
SOLID
 70
     1
 71
     0
 91
        3
 92
        1
 93
        1
 72
     4
 94
        3
 73
     0
 74
     1
 95
       41
 96
       37
 40
0.0
 40
0.0
 40
0.0
 40
0.0
 40
1.0
 40
1.0
 40
1.0
 40
2.0
 40
2.0
 40
2.0
 40
3.0
 40
3.0
 40
3.0
 40
4.0
 40
4.0
 40
4.0
 40
5.0
 40
5.0
 40
5.0
 40
6.0
 40
6.0
 40
6.0
 40
7.0
 40
7.0
 40
7.0
 40
8.0
 40
8.0
 40
8.0
 40
9.0
 40
9.0
 40
9.0
 40
10.0
 40
10.0
 40
10.0
 40
11.0
 40
11.0
 40
11.0
 40
12.0
 40
12.0
 40
12.0
 40
12.0
 10
369.873046875
 20
-302.30078125
 10
371.193359375
 20
-304.0107421875
 10
372.09375
 20
-306.4404296875
 10
372.09375
 20
-309.98046875
 10
372.09375
 20
-320.08984375
 10
364.59375
 20
-321.3203125
 10
361.744140625
 20
-321.3203125
 10
360.154296875
 20
-321.3203125
 10
357.154296875
 20
-320.9599609375
 10
354.7841796875
 20
-318.8603515625
 10
354.7841796875
 20
-318.8603515625
 10
352.32421875
 20
-321.5595703125
 10
352.32421875
 20
-321.5595703125
 10
352.32421875
 20
-321.5595703125
 10
351.064453125
 20
-320.419921875
 10
351.064453125
 20
-320.419921875
 10
351.064453125
 20
-320.419921875
 10
353.6142578125
 20
-317.6298828125
 10
353.6142578125
 20
-317.6298828125
 10
352.32421875
 20
-315.98046875
 10
351.39453125
 20
-313.5205078125
 10
351.39453125
 20
-309.98046875
 10
351.39453125
 20
-299.87109375
 10
358.8935546875
 20
-298.640625
 10
361.744140625
 20
-298.640625
 10
363.333984375
 20
-298.640625
 10
366.3037109375
 20
-299.03125
 10
368.703125
 20
-301.0703125
 10
368.703125
 20
-301.0703125
 10
371.1337890625
 20
-298.4013671875
 10
371.1337890625
 20
-298.4013671875
 10
371.1337890625
 20
-298.4013671875
 10
372.3935546875
 20
-299.541015625
 10
372.3935546875
 20
-299.541015625
 10
372.3935546875
 20
-299.541015625
 10
369.873046875
 20
-302.30078125
 10
369.873046875
 20
-302.30078125
 97
        0
 92
        1
 93
        1
 72
     4
 94
        3
 73
     0
 74
     1
 95
       17
 96
       13
 40
0.0
 40
0.0
 40
0.0
 40
0.0
 40
1.0
 40
1.0
 40
1.0
 40
2.0
 40
2.0
 40
2.0
 40
3.0
 40
3.0
 40
3.0
 40
4.0
 40
4.0
 40
4.0
 40
4.0
 10
365.8232421875
 20
-304.220703125
 10
364.59375
 20
-302.87109375
 10
363.033203125
 20
-302.451171875
 10
361.744140625
 20
-302.451171875
 10
359.3134765625
 20
-302.451171875
 10
355.8935546875
 20
-303.951171875
 10
355.8935546875
 20
-309.98046875
 10
355.8935546875
 20
-311.7802734375
 10
356.1943359375
 20
-313.16015625
 10
356.7041015625
 20
-314.2099609375
 10
356.7041015625
 20
-314.2099609375
 10
365.8232421875
 20
-304.220703125
 10
365.8232421875
 20
-304.220703125
 97
        0
 92
        1
 93
        1
 72
     4
 94
        3
 73
     0
 74
     1
 95
       17
 96
       13
 40
0.0
 40
0.0
 40
0.0
 40
0.0
 40
1.0
 40
1.0
 40
1.0
 40
2.0
 40
2.0
 40
2.0
 40
3.0
 40
3.0
 40
3.0
 40
4.0
 40
4.0
 40
4.0
 40
4.0
 10
357.6337890625
 20
-315.7099609375
 10
358.833984375
 20
-317.060546875
 10
360.423828125
 20
-317.509765625
 10
361.744140625
 20
-317.509765625
 10
364.173828125
 20
-317.509765625
 10
367.59375
 20
-316.009765625
 10
367.59375
 20
-309.98046875
 10
367.59375
 20
-308.150390625
 10
367.2939453125
 20
-306.740234375
 10
366.75390625
 20
-305.720703125
 10
366.75390625
 20
-305.720703125
 10
357.6337890625
 20
-315.7099609375
 10
357.6337890625
 20
-315.7099609375
 97
        0
 75
     2
 76
     1
 98
        0
  0
SPLINE
  5
158
330
150
100
AcDbEntity
  8
Text Kopie
370
     0
100
AcDbSpline
210
0.0
220
0.0
230
1.0
 70
    11
 71
     3
 72
    50
 73
    46
 74
     0
 42
0.0000000001
 43
0.0000000001
 40
0.0
 40
0.0
 40
0.0
 40
0.0
 40
1.0
 40
1.0
 40
1.0
 40
2.0
 40
2.0
 40
2.0
 40
3.0
 40
3.0
 40
3.0
 40
4.0
 40
4.0
 40
4.0
 40
5.0
 40
5.0
 40
5.0
 40
6.0
 40
6.0
 40
6.0
 40
7.0
 40
7.0
 40
7.0
 40
8.0
 40
8.0
 40
8.0
 40
9.0
 40
9.0
 40
9.0
 40
10.0
 40
10.0
 40
10.0
 40
11.0
 40
11.0
 40
11.0
 40
12.0
 40
12.0
 40
12.0
 40
13.0
 40
13.0
 40
13.0
 40
14.0
 40
14.0
 40
14.0
 40
15.0
 40
15.0
 40
15.0
 40
15.0
 10
378.6337890625
 20
-307.970703125
 30
0.0
 10
379.4140625
 20
-307.4306640625
 30
0.0
 10
380.3740234375
 20
-306.80078125
 30
0.0
 10
382.443359375
 20
-306.80078125
 30
0.0
 10
385.2939453125
 20
-306.80078125
 30
0.0
 10
388.8935546875
 20
-308.7802734375
 30
0.0
 10
388.8935546875
 20
-313.669921875
 30
0.0
 10
388.8935546875
 20
-316.580078125
 30
0.0
 10
387.423828125
 20
-321.3203125
 30
0.0
 10
381.1533203125
 20
-321.3203125
 30
0.0
 10
377.82421875
 20
-321.3203125
 30
0.0
 10
374.43359375
 20
-319.33984375
 30
0.0
 10
374.2236328125
 20
-315.0498046875
 30
0.0
 10
374.2236328125
 20
-315.0498046875
 30
0.0
 10
378.423828125
 20
-315.0498046875
 30
0.0
 10
378.423828125
 20
-315.0498046875
 30
0.0
 10
378.603515625
 20
-316.7900390625
 30
0.0
 10
379.5341796875
 20
-317.9599609375
 30
0.0
 10
381.3935546875
 20
-317.9599609375
 30
0.0
 10
383.4033203125
 20
-317.9599609375
 30
0.0
 10
384.5732421875
 20
-316.25
 30
0.0
 10
384.5732421875
 20
-313.970703125
 30
0.0
 10
384.5732421875
 20
-312.080078125
 30
0.0
 10
383.673828125
 20
-310.16015625
 30
0.0
 10
381.4541015625
 20
-310.16015625
 30
0.0
 10
380.8837890625
 20
-310.16015625
 30
0.0
 10
379.443359375
 20
-310.1904296875
 30
0.0
 10
378.6337890625
 20
-311.6904296875
 30
0.0
 10
378.6337890625
 20
-311.6904296875
 30
0.0
 10
374.8837890625
 20
-311.5107421875
 30
0.0
 10
374.8837890625
 20
-311.5107421875
 30
0.0
 10
374.8837890625
 20
-311.5107421875
 30
0.0
 10
376.353515625
 20
-299.810546875
 30
0.0
 10
376.353515625
 20
-299.810546875
 30
0.0
 10
376.353515625
 20
-299.810546875
 30
0.0
 10
388.0537109375
 20
-299.810546875
 30
0.0
 10
388.0537109375
 20
-299.810546875
 30
0.0
 10
388.0537109375
 20
-299.810546875
 30
0.0
 10
388.0537109375
 20
-303.3505859375
 30
0.0
 10
388.0537109375
 20
-303.3505859375
 30
0.0
 10
388.0537109375
 20
-303.3505859375
 30
0.0
 10
379.3837890625
 20
-303.3505859375
 30
0.0
 10
379.3837890625
 20
-303.3505859375
 30
0.0
 10
379.3837890625
 20
-303.3505859375
 30
0.0
 10
378.6337890625
 20
-307.970703125
 30
0.0
 10
378.6337890625
 20
-307.970703125
 30
0.0
  0
HATCH
  5
159
330
150
100
AcDbEntity
  8
Text Kopie
 62
   250
420
  1842203
100
AcDbHatch
 10
0.0
 20
0.0
 30
0.0
210
0.0
220
0.0
230
1.0
  2
SOLID
 70
     1
 71
     0
 91
        1
 92
        1
 93
        1
 72
     4
 94
        3
 73
     0
 74
     1
 95
       50
 96
       46
 40
0.0
 40
0.0
 40
0.0
 40
0.0
 40
1.0
 40
1.0
 40
1.0
 40
2.0
 40
2.0
 40
2.0
 40
3.0
 40
3.0
 40
3.0
 40
4.0
 40
4.0
 40
4.0
 40
5.0
 40
5.0
 40
5.0
 40
6.0
 40
6.0
 40
6.0
 40
7.0
 40
7.0
 40
7.0
 40
8.0
 40
8.0
 40
8.0
 40
9.0
 40
9.0
 40
9.0
 40
10.0
 40
10.0
 40
10.0
 40
11.0
 40
11.0
 40
11.0
 40
12.0
 40
12.0
 40
12.0
 40
13.0
 40
13.0
 40
13.0
 40
14.0
 40
14.0
 40
14.0
 40
15.0
 40
15.0
 40
15.0
 40
15.0
 10
378.6337890625
 20
-307.970703125
 10
379.4140625
 20
-307.4306640625
 10
380.3740234375
 20
-306.80078125
 10
382.443359375
 20
-306.80078125
 10
385.2939453125
 20
-306.80078125
 10
388.8935546875
 20
-308.7802734375
 10
388.8935546875
 20
-313.669921875
 10
388.8935546875
 20
-316.580078125
 10
387.423828125
 20
-321.3203125
 10
381.1533203125
 20
-321.3203125
 10
377.82421875
 20
-321.3203125
 10
374.43359375
 20
-319.33984375
 10
374.2236328125
 20
-315.0498046875
 10
374.2236328125
 20
-315.0498046875
 10
378.423828125
 20
-315.0498046875
 10
378.423828125
 20
-315.0498046875
 10
378.603515625
 20
-316.7900390625
 10
379.5341796875
 20
-317.9599609375
 10
381.3935546875
 20
-317.9599609375
 10
383.4033203125
 20
-317.9599609375
 10
384.5732421875
 20
-316.25
 10
384.5732421875
 20
-313.970703125
 10
384.5732421875
 20
-312.080078125
 10
383.673828125
 20
-310.16015625
 10
381.4541015625
 20
-310.16015625
 10
380.8837890625
 20
-310.16015625
 10
379.443359375
 20
-310.1904296875
 10
378.6337890625
 20
-311.6904296875
 10
378.6337890625
 20
-311.6904296875
 10
374.8837890625
 20
-311.5107421875
 10
374.8837890625
 20
-311.5107421875
 10
374.8837890625
 20
-311.5107421875
 10
376.353515625
 20
-299.810546875
 10
376.353515625
 20
-299.810546875
 10
376.353515625
 20
-299.810546875
 10
388.0537109375
 20
-299.810546875
 10
388.0537109375
 20
-299.810546875
 10
388.0537109375
 20
-299.810546875
 10
388.0537109375
 20
-303.3505859375
 10
388.0537109375
 20
-303.3505859375
 10
388.0537109375
 20
-303.3505859375
 10
379.3837890625
 20
-303.3505859375
 10
379.3837890625
 20
-303.3505859375
 10
379.3837890625
 20
-303.3505859375
 10
378.6337890625
 20
-307.970703125
 10
378.6337890625
 20
-307.970703125
 97
        0
 75
     2
 76
     1
 98
        0
  0
SPLINE
  5
15A
330
150
100
AcDbEntity
  8
Text Kopie
370
     0
100
AcDbSpline
210
0.0
220
0.0
230
1.0
 70
    11
 71
     3
 72
    41
 73
    37
 74
     0
 42
0.0000000001
 43
0.0000000001
 40
0.0
 40
0.0
 40
0.0
 40
0.0
 40
1.0
 40
1.0
 40
1.0
 40
2.0
 40
2.0
 40
2.0
 40
3.0
 40
3.0
 40
3.0
 40
4.0
 40
4.0
 40
4.0
 40
5.0
 40
5.0
 40
5.0
 40
6.0
 40
6.0
 40
6.0
 40
7.0
 40
7.0
 40
7.0
 40
8.0
 40
8.0
 40
8.0
 40
9.0
 40
9.0
 40
9.0
 40
10.0
 40
10.0
 40
10.0
 40
11.0
 40
11.0
 40
11.0
 40
12.0
 40
12.0
 40
12.0
 40
12.0
 10
391.11328125
 20
-306.98046875
 30
0.0
 10
391.11328125
 20
-300.05078125
 30
0.0
 10
396.18359375
 20
-299.451171875
 30
0.0
 10
398.0732421875
 20
-299.451171875
 30
0.0
 10
402.1533203125
 20
-299.451171875
 30
0.0
 10
405.3935546875
 20
-301.8505859375
 30
0.0
 10
405.3935546875
 20
-306.1708984375
 30
0.0
 10
405.3935546875
 20
-309.830078125
 30
0.0
 10
403.0234375
 20
-311.6904296875
 30
0.0
 10
400.953125
 20
-313.1005859375
 30
0.0
 10
398.1337890625
 20
-315.080078125
 30
0.0
 10
396.6630859375
 20
-316.0400390625
 30
0.0
 10
396.18359375
 20
-317.0302734375
 30
0.0
 10
396.18359375
 20
-317.0302734375
 30
0.0
 10
405.4228515625
 20
-317.0302734375
 30
0.0
 10
405.4228515625
 20
-317.0302734375
 30
0.0
 10
405.4228515625
 20
-317.0302734375
 30
0.0
 10
405.4228515625
 20
-320.75
 30
0.0
 10
405.4228515625
 20
-320.75
 30
0.0
 10
405.4228515625
 20
-320.75
 30
0.0
 10
390.8740234375
 20
-320.75
 30
0.0
 10
390.8740234375
 20
-320.75
 30
0.0
 10
391.0234375
 20
-318.259765625
 30
0.0
 10
391.2041015625
 20
-315.650390625
 30
0.0
 10
395.8232421875
 20
-312.2900390625
 30
0.0
 10
399.6630859375
 20
-309.5
 30
0.0
 10
401.193359375
 20
-308.4208984375
 30
0.0
 10
401.193359375
 20
-306.0205078125
 30
0.0
 10
401.193359375
 20
-304.6103515625
 30
0.0
 10
400.29296875
 20
-302.990234375
 30
0.0
 10
398.25390625
 20
-302.990234375
 30
0.0
 10
395.3134765625
 20
-302.990234375
 30
0.0
 10
395.2236328125
 20
-305.4208984375
 30
0.0
 10
395.193359375
 20
-306.98046875
 30
0.0
 10
395.193359375
 20
-306.98046875
 30
0.0
 10
391.11328125
 20
-306.98046875
 30
0.0
 10
391.11328125
 20
-306.98046875
 30
0.0
  0
HATCH
  5
15B
330
150
100
AcDbEntity
  8
Text Kopie
 62
   250
420
  1842203
100
AcDbHatch
 10
0.0
 20
0.0
 30
0.0
210
0.0
220
0.0
230
1.0
  2
SOLID
 70
     1
 71
     0
 91
        1
 92
        1
 93
        1
 72
     4
 94
        3
 73
     0
 74
     1
 95
       41
 96
       37
 40
0.0
 40
0.0
 40
0.0
 40
0.0
 40
1.0
 40
1.0
 40
1.0
 40
2.0
 40
2.0
 40
2.0
 40
3.0
 40
3.0
 40
3.0
 40
4.0
 40
4.0
 40
4.0
 40
5.0
 40
5.0
 40
5.0
 40
6.0
 40
6.0
 40
6.0
 40
7.0
 40
7.0
 40
7.0
 40
8.0
 40
8.0
 40
8.0
 40
9.0
 40
9.0
 40
9.0
 40
10.0
 40
10.0
 40
10.0
 40
11.0
 40
11.0
 40
11.0
 40
12.0
 40
12.0
 40
12.0
 40
12.0
 10
391.11328125
 20
-306.98046875
 10
391.11328125
 20
-300.05078125
 10
396.18359375
 20
-299.451171875
 10
398.0732421875
 20
-299.451171875
 10
402.1533203125
 20
-299.451171875
 10
405.3935546875
 20
-301.8505859375
 10
405.3935546875
 20
-306.1708984375
 10
405.3935546875
 20
-309.830078125
 10
403.0234375
 20
-311.6904296875
 10
400.953125
 20
-313.1005859375
 10
398.1337890625
 20
-315.080078125
 10
396.6630859375
 20
-316.0400390625
 10
396.18359375
 20
-317.0302734375
 10
396.18359375
 20
-317.0302734375
 10
405.4228515625
 20
-317.0302734375
 10
405.4228515625
 20
-317.0302734375
 10
405.4228515625
 20
-317.0302734375
 10
405.4228515625
 20
-320.75
 10
405.4228515625
 20
-320.75
 10
405.4228515625
 20
-320.75
 10
390.8740234375
 20
-320.75
 10
390.8740234375
 20
-320.75
 10
391.0234375
 20
-318.259765625
 10
391.2041015625
 20
-315.650390625
 10
395.8232421875
 20
-312.2900390625
 10
399.6630859375
 20
-309.5
 10
401.193359375
 20
-308.4208984375
 10
401.193359375
 20
-306.0205078125
 10
401.193359375
 20
-304.6103515625
 10
400.29296875
 20
-302.990234375
 10
398.25390625
 20
-302.990234375
 10
395.3134765625
 20
-302.990234375
 10
395.2236328125
 20
-305.4208984375
 10
395.193359375
 20
-306.98046875
 10
395.193359375
 20
-306.98046875
 10
391.11328125
 20
-306.98046875
 10
391.11328125
 20
-306.98046875
 97
        0
 75
     2
 76
     1
 98
        0
  0
ENDBLK
  5
153
330
150
100
AcDbEntity
  8
0
100
AcDbBlockEnd
  0
ENDSEC
  0
SECTION
  2
ENTITIES
  0
SPLINE
  5
3C
330
1F
100
AcDbEntity
  8
Produkt
 62
    18
420
    65536
370
    70
100
AcDbSpline
210
0.0
220
0.0
230
1.0
 70
    11
 71
     3
 72
    35
 73
    31
 74
     0
 42
0.0000000001
 43
0.0000000001
 40
0.0
 40
0.0
 40
0.0
 40
0.0
 40
1.0
 40
1.0
 40
1.0
 40
2.0
 40
2.0
 40
2.0
 40
3.0
 40
3.0
 40
3.0
 40
4.0
 40
4.0
 40
4.0
 40
5.0
 40
5.0
 40
5.0
 40
6.0
 40
6.0
 40
6.0
 40
7.0
 40
7.0
 40
7.0
 40
8.0
 40
8.0
 40
8.0
 40
9.0
 40
9.0
 40
9.0
 40
10.0
 40
10.0
 40
10.0
 40
10.0
 10
74.650390625
 20
-206.90283203125
 30
0.0
 10
74.650390625
 20
-205.5244140625
 30
0.0
 10
75.7783203125
 20
-204.39697265625
 30
0.0
 10
77.15625
 20
-204.39697265625
 30
0.0
 10
77.15625
 20
-204.39697265625
 30
0.0
 10
510.0224609375
 20
-204.39697265625
 30
0.0
 10
510.0224609375
 20
-204.39697265625
 30
0.0
 10
511.400390625
 20
-204.39697265625
 30
0.0
 10
512.5283203125
 20
-205.5244140625
 30
0.0
 10
512.5283203125
 20
-206.90283203125
 30
0.0
 10
512.5283203125
 20
-206.90283203125
 30
0.0
 10
512.5283203125
 20
-352.1728515625
 30
0.0
 10
512.5283203125
 20
-352.1728515625
 30
0.0
 10
512.5283203125
 20
-353.55078125
 30
0.0
 10
511.41015625
 20
-354.8232421875
 30
0.0
 10
510.04296875
 20
-355.0009765625
 30
0.0
 10
510.04296875
 20
-355.0009765625
 30
0.0
 10
224.4697265625
 20
-392.072265625
 30
0.0
 10
224.4697265625
 20
-392.072265625
 30
0.0
 10
223.103515625
 20
-392.2509765625
 30
0.0
 10
220.857421875
 20
-392.3955078125
 30
0.0
 10
219.4794921875
 20
-392.3955078125
 30
0.0
 10
219.4794921875
 20
-392.3955078125
 30
0.0
 10
77.15625
 20
-392.3955078125
 30
0.0
 10
77.15625
 20
-392.3955078125
 30
0.0
 10
75.7783203125
 20
-392.3955078125
 30
0.0
 10
74.650390625
 20
-391.2685546875
 30
0.0
 10
74.650390625
 20
-389.890625
 30
0.0
 10
74.650390625
 20
-389.890625
 30
0.0
 10
74.650390625
 20
-206.90283203125
 30
0.0
 10
74.650390625
 20
-206.90283203125
 30
0.0
  0
SPLINE
  5
3D
330
1F
100
AcDbEntity
  8
Produkt
 62
    18
420
    65536
370
    70
100
AcDbSpline
210
0.0
220
0.0
230
1.0
 70
    11
 71
     3
 72
    35
 73
    31
 74
     0
 42
0.0000000001
 43
0.0000000001
 40
0.0
 40
0.0
 40
0.0
 40
0.0
 40
1.0
 40
1.0
 40
1.0
 40
2.0
 40
2.0
 40
2.0
 40
3.0
 40
3.0
 40
3.0
 40
4.0
 40
4.0
 40
4.0
 40
5.0
 40
5.0
 40
5.0
 40
6.0
 40
6.0
 40
6.0
 40
7.0
 40
7.0
 40
7.0
 40
8.0
 40
8.0
 40
8.0
 40
9.0
 40
9.0
 40
9.0
 40
10.0
 40
10.0
 40
10.0
 40
10.0
 10
500.15234375
 20
-309.4296875
 30
0.0
 10
500.15234375
 20
-330.1025390625
 30
0.0
 10
483.3720703125
 20
-349.1513671875
 30
0.0
 10
462.8642578125
 20
-351.759765625
 30
0.0
 10
462.8642578125
 20
-351.759765625
 30
0.0
 10
268.7021484375
 20
-376.4560546875
 30
0.0
 10
268.7021484375
 20
-376.4560546875
 30
0.0
 10
248.1943359375
 20
-379.064453125
 30
0.0
 10
214.5009765625
 20
-381.19921875
 30
0.0
 10
193.8271484375
 20
-381.19921875
 30
0.0
 10
193.8271484375
 20
-381.19921875
 30
0.0
 10
124.6142578125
 20
-381.19921875
 30
0.0
 10
124.6142578125
 20
-381.19921875
 30
0.0
 10
103.94140625
 20
-381.19921875
 30
0.0
 10
87.0263671875
 20
-364.283203125
 30
0.0
 10
87.0263671875
 20
-343.611328125
 30
0.0
 10
87.0263671875
 20
-343.611328125
 30
0.0
 10
87.0263671875
 20
-252.59326171875
 30
0.0
 10
87.0263671875
 20
-252.59326171875
 30
0.0
 10
87.0263671875
 20
-231.91943359375
 30
0.0
 10
103.94140625
 20
-215.00537109375
 30
0.0
 10
124.6142578125
 20
-215.00537109375
 30
0.0
 10
124.6142578125
 20
-215.00537109375
 30
0.0
 10
462.564453125
 20
-215.00537109375
 30
0.0
 10
462.564453125
 20
-215.00537109375
 30
0.0
 10
483.2373046875
 20
-215.00537109375
 30
0.0
 10
500.15234375
 20
-231.91943359375
 30
0.0
 10
500.15234375
 20
-252.59326171875
 30
0.0
 10
500.15234375
 20
-252.59326171875
 30
0.0
 10
500.15234375
 20
-309.4296875
 30
0.0
 10
500.15234375
 20
-309.4296875
 30
0.0
  0
SPLINE
  5
3E
330
1F
100
AcDbEntity
  8
Produkt
 62
    18
420
    65536
370
    70
100
AcDbSpline
210
0.0
220
0.0
230
1.0
 70
    11
 71
     3
 72
    35
 73
    31
 74
     0
 42
0.0000000001
 43
0.0000000001
 40
0.0
 40
0.0
 40
0.0
 40
0.0
 40
1.0
 40
1.0
 40
1.0
 40
2.0
 40
2.0
 40
2.0
 40
3.0
 40
3.0
 40
3.0
 40
4.0
 40
4.0
 40
4.0
 40
5.0
 40
5.0
 40
5.0
 40
6.0
 40
6.0
 40
6.0
 40
7.0
 40
7.0
 40
7.0
 40
8.0
 40
8.0
 40
8.0
 40
9.0
 40
9.0
 40
9.0
 40
10.0
 40
10.0
 40
10.0
 40
10.0
 10
469.505859375
 20
-308.4150390625
 30
0.0
 10
469.505859375
 20
-319.44140625
 30
0.0
 10
460.5654296875
 20
-319.927734375
 30
0.0
 10
449.63671875
 20
-321.3935546875
 30
0.0
 10
449.63671875
 20
-321.3935546875
 30
0.0
 10
247.7470703125
 20
-348.4755859375
 30
0.0
 10
247.7470703125
 20
-348.4755859375
 30
0.0
 10
236.8193359375
 20
-349.9423828125
 30
0.0
 10
218.857421875
 20
-351.142578125
 30
0.0
 10
207.8310546875
 20
-351.142578125
 30
0.0
 10
207.8310546875
 20
-351.142578125
 30
0.0
 10
192.52734375
 20
-351.142578125
 30
0.0
 10
192.52734375
 20
-351.142578125
 30
0.0
 10
181.501953125
 20
-351.142578125
 30
0.0
 10
172.48046875
 20
-342.12109375
 30
0.0
 10
172.48046875
 20
-331.095703125
 30
0.0
 10
172.48046875
 20
-331.095703125
 30
0.0
 10
172.48046875
 20
-266.287109375
 30
0.0
 10
172.48046875
 20
-266.287109375
 30
0.0
 10
172.48046875
 20
-255.2607421875
 30
0.0
 10
181.501953125
 20
-246.240234375
 30
0.0
 10
192.52734375
 20
-246.240234375
 30
0.0
 10
192.52734375
 20
-246.240234375
 30
0.0
 10
459.1923828125
 20
-246.240234375
 30
0.0
 10
459.1923828125
 20
-246.240234375
 30
0.0
 10
470.2177734375
 20
-246.240234375
 30
0.0
 10
469.505859375
 20
-251.71630859375
 30
0.0
 10
469.505859375
 20
-262.74169921875
 30
0.0
 10
469.505859375
 20
-262.74169921875
 30
0.0
 10
469.505859375
 20
-308.4150390625
 30
0.0
 10
469.505859375
 20
-308.4150390625
 30
0.0
  0
SPLINE
  5
3F
330
1F
100
AcDbEntity
  8
Produkt
 62
    18
420
    65536
370
    70
100
AcDbSpline
210
0.0
220
0.0
230
1.0
 70
    11
 71
     3
 72
    17
 73
    13
 74
     0
 42
0.0000000001
 43
0.0000000001
 40
0.0
 40
0.0
 40
0.0
 40
0.0
 40
1.0
 40
1.0
 40
1.0
 40
2.0
 40
2.0
 40
2.0
 40
3.0
 40
3.0
 40
3.0
 40
4.0
 40
4.0
 40
4.0
 40
4.0
 10
448.5849609375
 20
-282.091796875
 30
0.0
 10
448.5849609375
 20
-285.671875
 30
0.0
 10
445.681640625
 20
-288.57421875
 30
0.0
 10
442.1015625
 20
-288.57421875
 30
0.0
 10
438.521484375
 20
-288.57421875
 30
0.0
 10
435.619140625
 20
-285.671875
 30
0.0
 10
435.619140625
 20
-282.091796875
 30
0.0
 10
435.619140625
 20
-278.5107421875
 30
0.0
 10
438.521484375
 20
-275.6083984375
 30
0.0
 10
442.1015625
 20
-275.6083984375
 30
0.0
 10
445.681640625
 20
-275.6083984375
 30
0.0
 10
448.5849609375
 20
-278.5107421875
 30
0.0
 10
448.5849609375
 20
-282.091796875
 30
0.0
  0
POLYLINE
  5
40
330
1F
100
AcDbEntity
  8
Produkt
 62
    18
420
    65536
370
    70
100
AcDb2dPolyline
 66
     1
 10
0.0
 20
0.0
 30
0.0
  0
VERTEX
  5
41
330
40
100
AcDbEntity
  8
Produkt
 62
    18
420
    65536
370
    70
100
AcDbVertex
100
AcDb2dVertex
 10
459.783203125
 20
-309.2001953125
 30
0.0
  0
VERTEX
  5
42
330
40
100
AcDbEntity
  8
Produkt
 62
    18
420
    65536
370
    70
100
AcDbVertex
100
AcDb2dVertex
 10
424.421875
 20
-309.2001953125
 30
0.0
  0
VERTEX
  5
43
330
40
100
AcDbEntity
  8
Produkt
 62
    18
420
    65536
370
    70
100
AcDbVertex
100
AcDb2dVertex
 10
424.421875
 20
-254.9814453125
 30
0.0
  0
VERTEX
  5
44
330
40
100
AcDbEntity
  8
Produkt
 62
    18
420
    65536
370
    70
100
AcDbVertex
100
AcDb2dVertex
 10
459.783203125
 20
-254.9814453125
 30
0.0
  0
VERTEX
  5
45
330
40
100
AcDbEntity
  8
Produkt
 62
    18
420
    65536
370
    70
100
AcDbVertex
100
AcDb2dVertex
 10
459.783203125
 20
-309.2001953125
 30
0.0
  0
SEQEND
  5
46
330
40
100
AcDbEntity
  8
Produkt
370
    70
  0
SPLINE
  5
47
330
1F
100
AcDbEntity
  8
Produkt
 62
    18
420
    65536
370
    70
100
AcDbSpline
210
0.0
220
0.0
230
1.0
 70
    11
 71
     3
 72
    17
 73
    13
 74
     0
 42
0.0000000001
 43
0.0000000001
 40
0.0
 40
0.0
 40
0.0
 40
0.0
 40
1.0
 40
1.0
 40
1.0
 40
2.0
 40
2.0
 40
2.0
 40
3.0
 40
3.0
 40
3.0
 40
4.0
 40
4.0
 40
4.0
 40
4.0
 10
453.2998046875
 20
-282.091796875
 30
0.0
 10
453.2998046875
 20
-288.275390625
 30
0.0
 10
448.28515625
 20
-293.2880859375
 30
0.0
 10
442.1015625
 20
-293.2880859375
 30
0.0
 10
435.91796875
 20
-293.2880859375
 30
0.0
 10
430.904296875
 20
-288.275390625
 30
0.0
 10
430.904296875
 20
-282.091796875
 30
0.0
 10
430.904296875
 20
-275.9072265625
 30
0.0
 10
435.91796875
 20
-270.89306640625
 30
0.0
 10
442.1015625
 20
-270.89306640625
 30
0.0
 10
448.28515625
 20
-270.89306640625
 30
0.0
 10
453.2998046875
 20
-275.9072265625
 30
0.0
 10
453.2998046875
 20
-282.091796875
 30
0.0
  0
INSERT
  5
49
330
1F
100
AcDbEntity
  8
Produkt
100
AcDbBlockReference
  2
block 2
 10
0.0
 20
0.0
 30
0.0
  0
POLYLINE
  5
4F
330
1F
100
AcDbEntity
  8
Mass
 62
     7
420
 16777215
370
    35
100
AcDb2dPolyline
 66
     1
 10
0.0
 20
0.0
 30
0.0
  0
VERTEX
  5
50
330
4F
100
AcDbEntity
  8
Mass
 62
     7
420
 16777215
370
    35
100
AcDbVertex
100
AcDb2dVertex
 10
34.5234375
 20
-391.8388671875
 30
0.0
  0
VERTEX
  5
51
330
4F
100
AcDbEntity
  8
Mass
 62
     7
420
 16777215
370
    35
100
AcDbVertex
100
AcDb2dVertex
 10
34.5234375
 20
-204.921875
 30
0.0
  0
SEQEND
  5
52
330
4F
100
AcDbEntity
  8
Mass
370
    35
  0
POLYLINE
  5
53
330
1F
100
AcDbEntity
  8
Mass
 62
   250
420
  1906457
370
    35
100
AcDb2dPolyline
 66
     1
 10
0.0
 20
0.0
 30
0.0
  0
VERTEX
  5
54
330
53
100
AcDbEntity
  8
Mass
 62
   250
420
  1906457
370
    35
100
AcDbVertex
100
AcDb2dVertex
 10
69.6787109375
 20
-204.396484375
 30
0.0
  0
VERTEX
  5
55
330
53
100
AcDbEntity
  8
Mass
 62
   250
420
  1906457
370
    35
100
AcDbVertex
100
AcDb2dVertex
 10
29.0234375
 20
-204.396484375
 30
0.0
  0
SEQEND
  5
56
330
53
100
AcDbEntity
  8
Mass
370
    35
  0
POLYLINE
  5
57
330
1F
100
AcDbEntity
  8
Mass
 62
   250
420
  1906457
370
    35
100
AcDb2dPolyline
 66
     1
 10
0.0
 20
0.0
 30
0.0
  0
VERTEX
  5
58
330
57
100
AcDbEntity
  8
Mass
 62
   250
420
  1906457
370
    35
100
AcDbVertex
100
AcDb2dVertex
 10
69.6787109375
 20
-392.951171875
 30
0.0
  0
VERTEX
  5
59
330
57
100
AcDbEntity
  8
Mass
 62
   250
420
  1906457
370
    35
100
AcDbVertex
100
AcDb2dVertex
 10
29.0234375
 20
-392.951171875
 30
0.0
  0
SEQEND
  5
5A
330
57
100
AcDbEntity
  8
Mass
370
    35
  0
POLYLINE
  5
5B
330
1F
100
AcDbEntity
  8
Mass
 62
   250
420
  1906457
370
    35
100
AcDb2dPolyline
 66
     1
 10
0.0
 20
0.0
 30
0.0
  0
VERTEX
  5
5C
330
5B
100
AcDbEntity
  8
Mass
 62
   250
420
  1906457
370
    35
100
AcDbVertex
100
AcDb2dVertex
 10
588.85546875
 20
-352.7392578125
 30
0.0
  0
VERTEX
  5
5D
330
5B
100
AcDbEntity
  8
Mass
 62
   250
420
  1906457
370
    35
100
AcDbVertex
100
AcDb2dVertex
 10
518.3935546875
 20
-352.7392578125
 30
0.0
  0
SEQEND
  5
5E
330
5B
100
AcDbEntity
  8
Mass
370
    35
  0
POLYLINE
  5
5F
330
1F
100
AcDbEntity
  8
Mass
 62
   250
420
  1906457
370
    35
100
AcDb2dPolyline
 66
     1
 10
0.0
 20
0.0
 30
0.0
  0
VERTEX
  5
60
330
5F
100
AcDbEntity
  8
Mass
 62
   250
420
  1906457
370
    35
100
AcDbVertex
100
AcDb2dVertex
 10
74.650390625
 20
-470.3330078125
 30
0.0
  0
VERTEX
  5
61
330
5F
100
AcDbEntity
  8
Mass
 62
   250
420
  1906457
370
    35
100
AcDbVertex
100
AcDb2dVertex
 10
74.650390625
 20
-396.572265625
 30
0.0
  0
SEQEND
  5
62
330
5F
100
AcDbEntity
  8
Mass
370
    35
  0
POLYLINE
  5
63
330
1F
100
AcDbEntity
  8
Mass
 62
   250
420
  1906457
370
    35
100
AcDb2dPolyline
 66
     1
 10
0.0
 20
0.0
 30
0.0
  0
VERTEX
  5
64
330
63
100
AcDbEntity
  8
Mass
 62
   250
420
  1906457
370
    35
100
AcDbVertex
100
AcDb2dVertex
 10
223.806640625
 20
-469.8271484375
 30
0.0
  0
VERTEX
  5
65
330
63
100
AcDbEntity
  8
Mass
 62
   250
420
  1906457
370
    35
100
AcDbVertex
100
AcDb2dVertex
 10
223.806640625
 20
-396.572265625
 30
0.0
  0
SEQEND
  5
66
330
63
100
AcDbEntity
  8
Mass
370
    35
  0
POLYLINE
  5
67
330
1F
100
AcDbEntity
  8
Mass
 62
   250
420
  1906457
370
    35
100
AcDb2dPolyline
 66
     1
 10
0.0
 20
0.0
 30
0.0
  0
VERTEX
  5
68
330
67
100
AcDbEntity
  8
Mass
 62
   250
420
  1906457
370
    35
100
AcDbVertex
100
AcDb2dVertex
 10
442.267578125
 20
-296.671875
 30
0.0
  0
VERTEX
  5
69
330
67
100
AcDbEntity
  8
Mass
 62
   250
420
  1906457
370
    35
100
AcDbVertex
100
AcDb2dVertex
 10
442.267578125
 20
-180.7294921875
 30
0.0
  0
SEQEND
  5
6A
330
67
100
AcDbEntity
  8
Mass
370
    35
  0
POLYLINE
  5
6B
330
1F
100
AcDbEntity
  8
Mass
 62
   250
420
  1906457
370
    35
100
AcDb2dPolyline
 66
     1
 10
0.0
 20
0.0
 30
0.0
  0
VERTEX
  5
6C
330
6B
100
AcDbEntity
  8
Mass
 62
   250
420
  1906457
370
    35
100
AcDbVertex
100
AcDb2dVertex
 10
428.2744140625
 20
-282.4912109375
 30
0.0
  0
VERTEX
  5
6D
330
6B
100
AcDbEntity
  8
Mass
 62
   250
420
  1906457
370
    35
100
AcDbVertex
100
AcDb2dVertex
 10
549.5234375
 20
-282.4912109375
 30
0.0
  0
SEQEND
  5
6E
330
6B
100
AcDbEntity
  8
Mass
370
    35
  0
POLYLINE
  5
6F
330
1F
100
AcDbEntity
  8
Mass
 62
     7
420
 16777215
370
    35
100
AcDb2dPolyline
 66
     1
 10
0.0
 20
0.0
 30
0.0
  0
VERTEX
  5
70
330
6F
100
AcDbEntity
  8
Mass
 62
     7
420
 16777215
370
    35
100
AcDbVertex
100
AcDb2dVertex
 10
582.3662109375
 20
-351.142578125
 30
0.0
  0
VERTEX
  5
71
330
6F
100
AcDbEntity
  8
Mass
 62
     7
420
 16777215
370
    35
100
AcDbVertex
100
AcDb2dVertex
 10
582.3662109375
 20
-205.0400390625
 30
0.0
  0
SEQEND
  5
72
330
6F
100
AcDbEntity
  8
Mass
370
    35
  0
POLYLINE
  5
73
330
1F
100
AcDbEntity
  8
Mass
 62
     7
420
 16777215
370
    35
100
AcDb2dPolyline
 66
     1
 10
0.0
 20
0.0
 30
0.0
  0
VERTEX
  5
74
330
73
100
AcDbEntity
  8
Mass
 62
     7
420
 16777215
370
    35
100
AcDbVertex
100
AcDb2dVertex
 10
223.806640625
 20
-464.9326171875
 30
0.0
  0
VERTEX
  5
75
330
73
100
AcDbEntity
  8
Mass
 62
     7
420
 16777215
370
    35
100
AcDbVertex
100
AcDb2dVertex
 10
74.650390625
 20
-464.9326171875
 30
0.0
  0
SEQEND
  5
76
330
73
100
AcDbEntity
  8
Mass
370
    35
  0
POLYLINE
  5
77
330
1F
100
AcDbEntity
  8
Mass
 62
   250
420
  1906457
370
    35
100
AcDb2dPolyline
 66
     1
 10
0.0
 20
0.0
 30
0.0
  0
VERTEX
  5
78
330
77
100
AcDbEntity
  8
Mass
 62
   250
420
  1906457
370
    35
100
AcDbVertex
100
AcDb2dVertex
 10
74.650390625
 20
-201.43017578125
 30
0.0
  0
VERTEX
  5
79
330
77
100
AcDbEntity
  8
Mass
 62
   250
420
  1906457
370
    35
100
AcDbVertex
100
AcDb2dVertex
 10
74.650390625
 20
-138.1123046875
 30
0.0
  0
SEQEND
  5
7A
330
77
100
AcDbEntity
  8
Mass
370
    35
  0
POLYLINE
  5
7B
330
1F
100
AcDbEntity
  8
Mass
 62
   250
420
  1906457
370
    35
100
AcDb2dPolyline
 66
     1
 10
0.0
 20
0.0
 30
0.0
  0
VERTEX
  5
7C
330
7B
100
AcDbEntity
  8
Mass
 62
   250
420
  1906457
370
    35
100
AcDbVertex
100
AcDb2dVertex
 10
512.78125
 20
-200.75439453125
 30
0.0
  0
VERTEX
  5
7D
330
7B
100
AcDbEntity
  8
Mass
 62
   250
420
  1906457
370
    35
100
AcDbVertex
100
AcDb2dVertex
 10
512.78125
 20
-138.1123046875
 30
0.0
  0
SEQEND
  5
7E
330
7B
100
AcDbEntity
  8
Mass
370
    35
  0
POLYLINE
  5
7F
330
1F
100
AcDbEntity
  8
Mass
 62
     7
420
 16777215
370
    35
100
AcDb2dPolyline
 66
     1
 10
0.0
 20
0.0
 30
0.0
  0
VERTEX
  5
80
330
7F
100
AcDbEntity
  8
Mass
 62
     7
420
 16777215
370
    35
100
AcDbVertex
100
AcDb2dVertex
 10
512.275390625
 20
-145.8037109375
 30
0.0
  0
VERTEX
  5
81
330
7F
100
AcDbEntity
  8
Mass
 62
     7
420
 16777215
370
    35
100
AcDbVertex
100
AcDb2dVertex
 10
74.650390625
 20
-145.8037109375
 30
0.0
  0
SEQEND
  5
82
330
7F
100
AcDbEntity
  8
Mass
370
    35
  0
POLYLINE
  5
83
330
1F
100
AcDbEntity
  8
Mass
 62
   250
420
  1906457
370
    35
100
AcDb2dPolyline
 66
     1
 10
0.0
 20
0.0
 30
0.0
  0
VERTEX
  5
84
330
83
100
AcDbEntity
  8
Mass
 62
   250
420
  1906457
370
    35
100
AcDbVertex
100
AcDb2dVertex
 10
586.0595703125
 20
-203.75439453125
 30
0.0
  0
VERTEX
  5
85
330
83
100
AcDbEntity
  8
Mass
 62
   250
420
  1906457
370
    35
100
AcDbVertex
100
AcDb2dVertex
 10
518.7255859375
 20
-203.75439453125
 30
0.0
  0
SEQEND
  5
86
330
83
100
AcDbEntity
  8
Mass
370
    35
  0
POLYLINE
  5
87
330
1F
100
AcDbEntity
  8
Mass
 62
     7
420
 16777215
370
    35
100
AcDb2dPolyline
 66
     1
 10
0.0
 20
0.0
 30
0.0
  0
VERTEX
  5
88
330
87
100
AcDbEntity
  8
Mass
 62
     7
420
 16777215
370
    35
100
AcDbVertex
100
AcDb2dVertex
 10
406.5224609375
 20
-311.740234375
 30
0.0
  0
VERTEX
  5
89
330
87
100
AcDbEntity
  8
Mass
 62
     7
420
 16777215
370
    35
100
AcDbVertex
100
AcDb2dVertex
 10
432.974609375
 20
-288.57421875
 30
0.0
  0
SEQEND
  5
8A
330
87
100
AcDbEntity
  8
Mass
370
    35
  0
POLYLINE
  5
8B
330
1F
100
AcDbEntity
  8
Mass
 62
     7
420
 16777215
370
    35
100
AcDb2dPolyline
 66
     1
 10
0.0
 20
0.0
 30
0.0
  0
VERTEX
  5
8C
330
8B
100
AcDbEntity
  8
Mass
 62
     7
420
 16777215
370
    35
100
AcDbVertex
100
AcDb2dVertex
 10
546.0234375
 20
-281.55908203125
 30
0.0
  0
VERTEX
  5
8D
330
8B
100
AcDbEntity
  8
Mass
 62
     7
420
 16777215
370
    35
100
AcDbVertex
100
AcDb2dVertex
 10
546.0234375
 20
-204.396484375
 30
0.0
  0
SEQEND
  5
8E
330
8B
100
AcDbEntity
  8
Mass
370
    35
  0
POLYLINE
  5
8F
330
1F
100
AcDbEntity
  8
Mass
 62
     7
420
 16777215
370
    35
100
AcDb2dPolyline
 66
     1
 10
0.0
 20
0.0
 30
0.0
  0
VERTEX
  5
90
330
8F
100
AcDbEntity
  8
Mass
 62
     7
420
 16777215
370
    35
100
AcDbVertex
100
AcDb2dVertex
 10
512.78125
 20
-189.8212890625
 30
0.0
  0
VERTEX
  5
91
330
8F
100
AcDbEntity
  8
Mass
 62
     7
420
 16777215
370
    35
100
AcDbVertex
100
AcDb2dVertex
 10
442.1015625
 20
-189.8212890625
 30
0.0
  0
SEQEND
  5
92
330
8F
100
AcDbEntity
  8
Mass
370
    35
  0
POLYLINE
  5
93
330
1F
100
AcDbEntity
  8
Mass
 62
   250
420
  1906457
370
    35
100
AcDb2dPolyline
 66
     1
 10
0.0
 20
0.0
 30
0.0
  0
VERTEX
  5
94
330
93
100
AcDbEntity
  8
Mass
 62
   250
420
  1906457
370
    35
100
AcDbVertex
100
AcDb2dVertex
 10
87.0263671875
 20
-421.0
 30
0.0
  0
VERTEX
  5
95
330
93
100
AcDbEntity
  8
Mass
 62
   250
420
  1906457
370
    35
100
AcDbVertex
100
AcDb2dVertex
 10
87.0263671875
 20
-396.572265625
 30
0.0
  0
SEQEND
  5
96
330
93
100
AcDbEntity
  8
Mass
370
    35
  0
POLYLINE
  5
97
330
1F
100
AcDbEntity
  8
Mass
 62
   250
420
  1906457
370
    35
100
AcDb2dPolyline
 66
     1
 10
0.0
 20
0.0
 30
0.0
  0
VERTEX
  5
98
330
97
100
AcDbEntity
  8
Mass
 62
   250
420
  1906457
370
    35
100
AcDbVertex
100
AcDb2dVertex
 10
500.15234375
 20
-389.6669921875
 30
0.0
  0
VERTEX
  5
99
330
97
100
AcDbEntity
  8
Mass
 62
   250
420
  1906457
370
    35
100
AcDbVertex
100
AcDb2dVertex
 10
500.15234375
 20
-359.6669921875
 30
0.0
  0
SEQEND
  5
9A
330
97
100
AcDbEntity
  8
Mass
370
    35
  0
POLYLINE
  5
9B
330
1F
100
AcDbEntity
  8
Mass
 62
   250
420
  1906457
370
    35
100
AcDb2dPolyline
 66
     1
 10
0.0
 20
0.0
 30
0.0
  0
VERTEX
  5
9C
330
9B
100
AcDbEntity
  8
Mass
 62
   250
420
  1906457
370
    35
100
AcDbVertex
100
AcDb2dVertex
 10
512.5283203125
 20
-389.6669921875
 30
0.0
  0
VERTEX
  5
9D
330
9B
100
AcDbEntity
  8
Mass
 62
   250
420
  1906457
370
    35
100
AcDbVertex
100
AcDb2dVertex
 10
512.5283203125
 20
-358.0
 30
0.0
  0
SEQEND
  5
9E
330
9B
100
AcDbEntity
  8
Mass
370
    35
  0
POLYLINE
  5
9F
330
1F
100
AcDbEntity
  8
Mass
 62
     7
420
 16777215
370
    35
100
AcDb2dPolyline
 66
     1
 10
0.0
 20
0.0
 30
0.0
  0
VERTEX
  5
A0
330
9F
100
AcDbEntity
  8
Mass
 62
     7
420
 16777215
370
    35
100
AcDbVertex
100
AcDb2dVertex
 10
499.6748046875
 20
-386.3330078125
 30
0.0
  0
VERTEX
  5
A1
330
9F
100
AcDbEntity
  8
Mass
 62
     7
420
 16777215
370
    35
100
AcDbVertex
100
AcDb2dVertex
 10
478.54296875
 20
-386.3330078125
 30
0.0
  0
SEQEND
  5
A2
330
9F
100
AcDbEntity
  8
Mass
370
    35
  0
POLYLINE
  5
A3
330
1F
100
AcDbEntity
  8
Mass
 62
     7
420
 16777215
370
    35
100
AcDb2dPolyline
 66
     1
 10
0.0
 20
0.0
 30
0.0
  0
VERTEX
  5
A4
330
A3
100
AcDbEntity
  8
Mass
 62
     7
420
 16777215
370
    35
100
AcDbVertex
100
AcDb2dVertex
 10
534.4248046875
 20
-386.3330078125
 30
0.0
  0
VERTEX
  5
A5
330
A3
100
AcDbEntity
  8
Mass
 62
     7
420
 16777215
370
    35
100
AcDbVertex
100
AcDb2dVertex
 10
513.29296875
 20
-386.3330078125
 30
0.0
  0
SEQEND
  5
A6
330
A3
100
AcDbEntity
  8
Mass
370
    35
  0
POLYLINE
  5
A7
330
1F
100
AcDbEntity
  8
Mass
 62
     7
420
 16777215
370
    35
100
AcDb2dPolyline
 66
     1
 10
0.0
 20
0.0
 30
0.0
  0
VERTEX
  5
A8
330
A7
100
AcDbEntity
  8
Mass
 62
     7
420
 16777215
370
    35
100
AcDbVertex
100
AcDb2dVertex
 10
74.18359375
 20
-415.6669921875
 30
0.0
  0
VERTEX
  5
A9
330
A7
100
AcDbEntity
  8
Mass
 62
     7
420
 16777215
370
    35
100
AcDbVertex
100
AcDb2dVertex
 10
59.052734375
 20
-415.6669921875
 30
0.0
  0
SEQEND
  5
AA
330
A7
100
AcDbEntity
  8
Mass
370
    35
  0
POLYLINE
  5
AB
330
1F
100
AcDbEntity
  8
Mass
 62
     7
420
 16777215
370
    35
100
AcDb2dPolyline
 66
     1
 10
0.0
 20
0.0
 30
0.0
  0
VERTEX
  5
AC
330
AB
100
AcDbEntity
  8
Mass
 62
     7
420
 16777215
370
    35
100
AcDbVertex
100
AcDb2dVertex
 10
105.32421875
 20
-415.6669921875
 30
0.0
  0
VERTEX
  5
AD
330
AB
100
AcDbEntity
  8
Mass
 62
     7
420
 16777215
370
    35
100
AcDbVertex
100
AcDb2dVertex
 10
87.193359375
 20
-415.6669921875
 30
0.0
  0
SEQEND
  5
AE
330
AB
100
AcDbEntity
  8
Mass
370
    35
  0
POLYLINE
  5
AF
330
1F
100
AcDbEntity
  8
Mass
 62
     7
420
 16777215
370
    35
100
AcDb2dPolyline
 66
     1
 10
0.0
 20
0.0
 30
0.0
  0
VERTEX
  5
B0
330
AF
100
AcDbEntity
  8
Mass
 62
     7
420
 16777215
370
    35
100
AcDbVertex
100
AcDb2dVertex
 10
57.21875
 20
-379.6611328125
 30
0.0
  0
VERTEX
  5
B1
330
AF
100
AcDbEntity
  8
Mass
 62
     7
420
 16777215
370
    35
100
AcDbVertex
100
AcDb2dVertex
 10
57.21875
 20
-362.5302734375
 30
0.0
  0
SEQEND
  5
B2
330
AF
100
AcDbEntity
  8
Mass
370
    35
  0
POLYLINE
  5
B3
330
1F
100
AcDbEntity
  8
Mass
 62
     7
420
 16777215
370
    35
100
AcDb2dPolyline
 66
     1
 10
0.0
 20
0.0
 30
0.0
  0
VERTEX
  5
B4
330
B3
100
AcDbEntity
  8
Mass
 62
     7
420
 16777215
370
    35
100
AcDbVertex
100
AcDb2dVertex
 10
57.21875
 20
-407.8017578125
 30
0.0
  0
VERTEX
  5
B5
330
B3
100
AcDbEntity
  8
Mass
 62
     7
420
 16777215
370
    35
100
AcDbVertex
100
AcDb2dVertex
 10
57.21875
 20
-392.6708984375
 30
0.0
  0
SEQEND
  5
B6
330
B3
100
AcDbEntity
  8
Mass
370
    35
  0
POLYLINE
  5
B7
330
1F
100
AcDbEntity
  8
Mass
 62
   250
420
  1906457
370
    35
100
AcDb2dPolyline
 66
     1
 10
0.0
 20
0.0
 30
0.0
  0
VERTEX
  5
B8
330
B7
100
AcDbEntity
  8
Mass
 62
   250
420
  1906457
370
    35
100
AcDbVertex
100
AcDb2dVertex
 10
69.6787109375
 20
-381.19921875
 30
0.0
  0
VERTEX
  5
B9
330
B7
100
AcDbEntity
  8
Mass
 62
   250
420
  1906457
370
    35
100
AcDbVertex
100
AcDb2dVertex
 10
44.7587890625
 20
-381.19921875
 30
0.0
  0
SEQEND
  5
BA
330
B7
100
AcDbEntity
  8
Mass
370
    35
  0
MTEXT
  5
BC
330
1F
100
AcDbEntity
  8
Text
 62
   250
420
  1842203
100
AcDbMText
 10
31.5927734375
 20
-321.994140625
 30
0.0
 40
20.4
 41
0.0
 71
     7
 72
     1
  1
\fHelvetica|b1|i0|c0|p34;\W1.02225;750
 11
-4.371139000186241E-8
 21
0.999999999999999
 31
0.0
 73
     1
 44
1.0
  0
MTEXT
  5
BD
330
1F
100
AcDbEntity
  8
Text
 62
   250
420
  1842203
100
AcDbMText
 10
540.9248046875
 20
-266.57470703125
 30
0.0
 40
20.4
 41
0.0
 71
     7
 72
     1
  1
\fHelvetica|b1|i0|c0|p34;\W1.02225;310
 11
-4.371139000186241E-8
 21
0.999999999999999
 31
0.0
 73
     1
 44
1.0
  0
MTEXT
  5
BE
330
1F
100
AcDbEntity
  8
Text
 62
   250
420
  1842203
100
AcDbMText
 10
454.48046875
 20
-181.2275390625
 30
0.0
 40
20.4
 41
0.0
 71
     7
 72
     1
  1
\fHelvetica|b1|i0|c0|p34;\W1.02225;280
 73
     1
 44
1.0
  0
MTEXT
  5
BF
330
1F
100
AcDbEntity
  8
Text
 62
   250
420
  1842203
100
AcDbMText
 10
250.05908203125
 20
-134.70361328125
 30
0.0
 40
20.4
 41
0.0
 71
     7
 72
     1
  1
\fHelvetica|b1|i0|c0|p34;\W1.02225;1750
 73
     1
 44
1.0
  0
MTEXT
  5
C0
330
1F
100
AcDbEntity
  8
Text
 62
   250
420
  1842203
100
AcDbMText
 10
129.673828125
 20
-458.7373046875
 30
0.0
 40
20.4
 41
0.0
 71
     7
 72
     1
  1
\fHelvetica|b1|i0|c0|p34;\W1.02225;600
 73
     1
 44
1.0
  0
MTEXT
  5
C1
330
1F
100
AcDbEntity
  8
Text
 62
   250
420
  1842203
100
AcDbMText
 10
108.66259765625
 20
-424.0703125
 30
0.0
 40
20.4
 41
0.0
 71
     7
 72
     1
  1
\fHelvetica|b1|i0|c0|p34;\W1.02225;59
 73
     1
 44
1.0
  0
MTEXT
  5
C2
330
1F
100
AcDbEntity
  8
Text
 62
   250
420
  1842203
100
AcDbMText
 10
66.6181640625
 20
-357.302734375
 30
0.0
 40
20.4
 41
0.0
 71
     7
 72
     1
  1
\fHelvetica|b1|i0|c0|p34;\W1.02225;41
 11
-4.371139000186241E-8
 21
0.999999999999999
 31
0.0
 73
     1
 44
1.0
  0
MTEXT
  5
C3
330
1F
100
AcDbEntity
  8
Text
 62
   250
420
  1842203
100
AcDbMText
 10
538.0126953125
 20
-395.7373046875
 30
0.0
 40
20.4
 41
0.0
 71
     7
 72
     1
  1
\fHelvetica|b1|i0|c0|p34;\W1.02225;71
 73
     1
 44
1.0
  0
MTEXT
  5
C4
330
1F
100
AcDbEntity
  8
Text
 62
   250
420
  1842203
100
AcDbMText
 10
578.5234375
 20
-302.6884765625
 30
0.0
 40
20.4
 41
0.0
 71
     7
 72
     1
  1
\fHelvetica|b1|i0|c0|p34;\W1.02225;600
 11
-4.371139000186241E-8
 21
0.999999999999999
 31
0.0
 73
     1
 44
1.0
  0
INSERT
  5
C6
330
1F
100
AcDbEntity
  8
Text
100
AcDbBlockReference
  2
block 3
 10
0.0
 20
0.0
 30
0.0
  0
INSERT
  5
D4
330
1F
100
AcDbEntity
  8
Text Kopie
100
AcDbBlockReference
  2
block 6
 10
0.0
 20
0.0
 30
0.0
  0
INSERT
  5
DF
330
1F
100
AcDbEntity
  8
Text Kopie
100
AcDbBlockReference
  2
block 7
 10
0.0
 20
0.0
 30
0.0
  0
INSERT
  5
EA
330
1F
100
AcDbEntity
  8
Text Kopie
100
AcDbBlockReference
  2
block 8
 10
0.0
 20
0.0
 30
0.0
  0
INSERT
  5
F7
330
1F
100
AcDbEntity
  8
Text Kopie
100
AcDbBlockReference
  2
block 9
 10
0.0
 20
0.0
 30
0.0
  0
INSERT
  5
104
330
1F
100
AcDbEntity
  8
Text Kopie
100
AcDbBlockReference
  2
block 10
 10
0.0
 20
0.0
 30
0.0
  0
INSERT
  5
111
330
1F
100
AcDbEntity
  8
Text Kopie
100
AcDbBlockReference
  2
block 11
 10
0.0
 20
0.0
 30
0.0
  0
INSERT
  5
11A
330
1F
100
AcDbEntity
  8
Text Kopie
100
AcDbBlockReference
  2
block 12
 10
0.0
 20
0.0
 30
0.0
  0
INSERT
  5
130
330
1F
100
AcDbEntity
  8
Text Kopie
100
AcDbBlockReference
  2
block 13
 10
0.0
 20
0.0
 30
0.0
  0
INSERT
  5
138
330
1F
100
AcDbEntity
  8
Text Kopie
100
AcDbBlockReference
  2
block 14
 10
0.0
 20
0.0
 30
0.0
  0
INSERT
  5
145
330
1F
100
AcDbEntity
  8
Text Kopie
100
AcDbBlockReference
  2
block 15
 10
0.0
 20
0.0
 30
0.0
  0
ENDSEC
  0
SECTION
  2
OBJECTS
  0
DICTIONARY
  5
C
330
0
100
AcDbDictionary
281
     1
  3
ACAD_GROUP
350
D
  3
ACAD_LAYOUT
350
1A
  3
ACAD_MLINESTYLE
350
17
  3
ACAD_PLOTSETTINGS
350
19
  3
ACAD_PLOTSTYLENAME
350
E
  3
ACAD_TABLESTYLE
350
15C
  3
ACAD_VISUALSTYLE
350
2A
  0
DICTIONARY
  5
D
102
{ACAD_REACTORS
330
C
102
}
330
C
100
AcDbDictionary
281
     1
  0
DICTIONARY
  5
1A
102
{ACAD_REACTORS
330
C
102
}
330
C
100
AcDbDictionary
281
     1
  3
Layout1
350
1E
  3
Layout2
350
26
  3
Model
350
22
  0
DICTIONARY
  5
17
102
{ACAD_REACTORS
330
C
102
}
330
C
100
AcDbDictionary
281
     1
  3
Standard
350
18
  0
DICTIONARY
  5
19
102
{ACAD_REACTORS
330
C
102
}
330
C
100
AcDbDictionary
281
     1
  0
ACDBDICTIONARYWDFLT
  5
E
102
{ACAD_REACTORS
330
C
102
}
330
C
100
AcDbDictionary
281
     1
  3
Normal
350
F
100
AcDbDictionaryWithDefault
340
F
  0
DICTIONARY
  5
15C
102
{ACAD_REACTORS
330
C
102
}
330
C
100
AcDbDictionary
281
     1
  0
DICTIONARY
  5
2A
102
{ACAD_REACTORS
330
C
102
}
330
C
100
AcDbDictionary
281
     1
  3
2dWireframe
350
2F
  3
3D Hidden
350
31
  3
3dWireframe
350
30
  3
Basic
350
32
  3
Brighten
350
36
  3
ColorChange
350
3A
  3
Conceptual
350
34
  3
Dim
350
35
  3
Facepattern
350
39
  3
Flat
350
2B
  3
FlatWithEdges
350
2C
  3
Gouraud
350
2D
  3
GouraudWithEdges
350
2E
  3
Linepattern
350
38
  3
Realistic
350
33
  3
Thicken
350
37
  0
LAYOUT
  5
1E
102
{ACAD_REACTORS
330
1A
102
}
330
1A
100
AcDbPlotSettings
  1

  2
none_device
  4

  6

 40
0.0
 41
0.0
 42
0.0
 43
0.0
 44
0.0
 45
0.0
 46
0.0
 47
0.0
 48
0.0
 49
0.0
140
0.0
141
0.0
142
1.0
143
1.0
 70
   688
 72
     0
 73
     0
 74
     5
  7

 75
    16
 76
     0
 77
     2
 78
   300
147
1.0
148
0.0
149
0.0
100
AcDbLayout
  1
Layout1
 70
     1
 71
     1
 10
0.0
 20
0.0
 11
12.0
 21
9.0
 12
0.0
 22
0.0
 32
0.0
 14
1.000000000000000E+20
 24
1.000000000000000E+20
 34
1.000000000000000E+20
 15
-1.000000000000000E+20
 25
-1.000000000000000E+20
 35
-1.000000000000000E+20
146
0.0
 13
0.0
 23
0.0
 33
0.0
 16
1.0
 26
0.0
 36
0.0
 17
0.0
 27
1.0
 37
0.0
 76
     0
330
1B
  0
LAYOUT
  5
26
102
{ACAD_REACTORS
330
1A
102
}
330
1A
100
AcDbPlotSettings
  1

  2
none_device
  4

  6

 40
0.0
 41
0.0
 42
0.0
 43
0.0
 44
0.0
 45
0.0
 46
0.0
 47
0.0
 48
0.0
 49
0.0
140
0.0
141
0.0
142
1.0
143
1.0
 70
   688
 72
     0
 73
     0
 74
     5
  7

 75
    16
 76
     0
 77
     2
 78
   300
147
1.0
148
0.0
149
0.0
100
AcDbLayout
  1
Layout2
 70
     1
 71
     2
 10
0.0
 20
0.0
 11
0.0
 21
0.0
 12
0.0
 22
0.0
 32
0.0
 14
0.0
 24
0.0
 34
0.0
 15
0.0
 25
0.0
 35
0.0
146
0.0
 13
0.0
 23
0.0
 33
0.0
 16
1.0
 26
0.0
 36
0.0
 17
0.0
 27
1.0
 37
0.0
 76
     0
330
23
  0
LAYOUT
  5
22
102
{ACAD_REACTORS
330
1A
102
}
330
1A
100
AcDbPlotSettings
  1

  2
none_device
  4

  6

 40
0.0
 41
0.0
 42
0.0
 43
0.0
 44
0.0
 45
0.0
 46
0.0
 47
0.0
 48
0.0
 49
0.0
140
0.0
141
0.0
142
1.0
143
1.0
 70
  1712
 72
     0
 73
     0
 74
     0
  7

 75
     0
 76
     0
 77
     2
 78
   300
147
1.0
148
0.0
149
0.0
100
AcDbLayout
  1
Model
 70
     1
 71
     0
 10
0.0
 20
0.0
 11
12.0
 21
9.0
 12
0.0
 22
0.0
 32
0.0
 14
1.000000000000000E+20
 24
1.000000000000000E+20
 34
1.000000000000000E+20
 15
-1.000000000000000E+20
 25
-1.000000000000000E+20
 35
-1.000000000000000E+20
146
0.0
 13
0.0
 23
0.0
 33
0.0
 16
1.0
 26
0.0
 36
0.0
 17
0.0
 27
1.0
 37
0.0
 76
     0
330
1F
331
29
  0
MLINESTYLE
  5
18
102
{ACAD_REACTORS
330
17
102
}
330
17
100
AcDbMlineStyle
  2
Standard
 70
     0
  3

 62
   256
 51
90.0
 52
90.0
 71
     2
 49
0.5
 62
   256
  6
BYLAYER
 49
-0.5
 62
   256
  6
BYLAYER
  0
ACDBPLACEHOLDER
  5
F
102
{ACAD_REACTORS
330
E
102
}
330
E
  0
VISUALSTYLE
  5
2F
102
{ACAD_REACTORS
330
2A
102
}
330
2A
100
AcDbVisualStyle
  2
2dWireframe
 70
     4
 71
     0
 72
     2
 73
     0
 90
        0
 40
-0.6
 41
-30.0
 62
     5
 63
     7
421
 16777215
 74
     1
 91
        4
 64
     7
 65
   257
 75
     1
175
     1
 42
1.0
 92
        0
 66
   257
 43
1.0
 76
     1
 77
     6
 78
     2
 67
     7
 79
     5
170
     0
171
     0
290
     0
174
     0
 93
        1
 44
0.0
173
     0
291
     0
 45
0.0
1001
ACAD
1000
AcDbSavedByObjectVersion
1070
     0
  0
VISUALSTYLE
  5
31
102
{ACAD_REACTORS
330
2A
102
}
330
2A
100
AcDbVisualStyle
  2
3D Hidden
 70
     6
 71
     1
 72
     2
 73
     2
 90
        0
 40
-0.6
 41
-30.0
 62
     5
 63
     7
421
 16777215
 74
     2
 91
        2
 64
     7
 65
   257
 75
     2
175
     1
 42
40.0
 92
        0
 66
   257
 43
1.0
 76
     1
 77
     6
 78
     2
 67
     7
 79
     3
170
     0
171
     0
290
     0
174
     0
 93
        1
 44
0.0
173
     0
291
     0
 45
0.0
1001
ACAD
1000
AcDbSavedByObjectVersion
1070
     0
  0
VISUALSTYLE
  5
30
102
{ACAD_REACTORS
330
2A
102
}
330
2A
100
AcDbVisualStyle
  2
3dWireframe
 70
     5
 71
     0
 72
     2
 73
     0
 90
        0
 40
-0.6
 41
-30.0
 62
     5
 63
     7
421
 16777215
 74
     1
 91
        4
 64
     7
 65
   257
 75
     1
175
     1
 42
1.0
 92
        0
 66
   257
 43
1.0
 76
     1
 77
     6
 78
     2
 67
     7
 79
     5
170
     0
171
     0
290
     0
174
     0
 93
        1
 44
0.0
173
     0
291
     0
 45
0.0
1001
ACAD
1000
AcDbSavedByObjectVersion
1070
     0
  0
VISUALSTYLE
  5
32
102
{ACAD_REACTORS
330
2A
102
}
330
2A
100
AcDbVisualStyle
  2
Basic
 70
     7
 71
     1
 72
     0
 73
     1
 90
        0
 40
-0.6
 41
-30.0
 62
     5
 63
     7
421
 16777215
 74
     0
 91
        4
 64
     7
 65
   257
 75
     1
175
     1
 42
1.0
 92
        8
 66
     7
 43
1.0
 76
     1
 77
     6
 78
     2
 67
     7
 79
     5
170
     0
171
     0
290
     0
174
     0
 93
        1
 44
0.0
173
     0
291
     1
 45
0.0
1001
ACAD
1000
AcDbSavedByObjectVersion
1070
     0
  0
VISUALSTYLE
  5
36
102
{ACAD_REACTORS
330
2A
102
}
330
2A
100
AcDbVisualStyle
  2
Brighten
 70
    12
 71
     2
 72
     2
 73
     0
 90
        0
 40
-0.6
 41
-30.0
 62
     5
 63
     7
421
 16777215
 74
     1
 91
        4
 64
     7
 65
   257
 75
     1
175
     1
 42
1.0
 92
        8
 66
     7
 43
1.0
 76
     1
 77
     6
 78
     2
 67
     7
 79
     5
170
     0
171
     0
290
     0
174
     0
 93
        1
 44
50.0
173
     0
291
     1
 45
0.0
1001
ACAD
1000
AcDbSavedByObjectVersion
1070
     0
  0
VISUALSTYLE
  5
3A
102
{ACAD_REACTORS
330
2A
102
}
330
2A
100
AcDbVisualStyle
  2
ColorChange
 70
    16
 71
     2
 72
     2
 73
     3
 90
        0
 40
-0.6
 41
-30.0
 62
     5
 63
     8
421
  8421504
 74
     1
 91
        4
 64
     7
 65
   257
 75
     1
175
     1
 42
1.0
 92
        8
 66
     8
424
  8421504
 43
1.0
 76
     1
 77
     6
 78
     2
 67
     7
 79
     5
170
     0
171
     0
290
     0
174
     0
 93
        1
 44
0.0
173
     0
291
     1
 45
0.0
1001
ACAD
1000
AcDbSavedByObjectVersion
1070
     0
  0
VISUALSTYLE
  5
34
102
{ACAD_REACTORS
330
2A
102
}
330
2A
100
AcDbVisualStyle
  2
Conceptual
 70
     9
 71
     3
 72
     2
 73
     0
 90
        0
 40
-0.6
 41
-30.0
 62
     5
 63
     7
421
 16777215
 74
     2
 91
        2
 64
     7
 65
   257
 75
     1
175
     1
 42
40.0
 92
        8
 66
     7
 43
1.0
 76
     1
 77
     6
 78
     2
 67
     7
 79
     3
170
     0
171
     0
290
     0
174
     0
 93
        1
 44
0.0
173
     0
291
     0
 45
0.0
1001
ACAD
1000
AcDbSavedByObjectVersion
1070
     0
  0
VISUALSTYLE
  5
35
102
{ACAD_REACTORS
330
2A
102
}
330
2A
100
AcDbVisualStyle
  2
Dim
 70
    11
 71
     2
 72
     2
 73
     0
 90
        0
 40
-0.6
 41
-30.0
 62
     5
 63
     7
421
 16777215
 74
     1
 91
        4
 64
     7
 65
   257
 75
     1
175
     1
 42
1.0
 92
        8
 66
     7
 43
1.0
 76
     1
 77
     6
 78
     2
 67
     7
 79
     5
170
     0
171
     0
290
     0
174
     0
 93
        1
 44
-50.0
173
     0
291
     1
 45
0.0
1001
ACAD
1000
AcDbSavedByObjectVersion
1070
     0
  0
VISUALSTYLE
  5
39
102
{ACAD_REACTORS
330
2A
102
}
330
2A
100
AcDbVisualStyle
  2
Facepattern
 70
    15
 71
     2
 72
     2
 73
     0
 90
        0
 40
-0.6
 41
-30.0
 62
     5
 63
     7
421
 16777215
 74
     1
 91
        4
 64
     7
 65
   257
 75
     1
175
     1
 42
1.0
 92
        8
 66
     7
 43
1.0
 76
     1
 77
     6
 78
     2
 67
     7
 79
     5
170
     0
171
     0
290
     0
174
     0
 93
        1
 44
0.0
173
     0
291
     1
 45
0.0
1001
ACAD
1000
AcDbSavedByObjectVersion
1070
     0
  0
VISUALSTYLE
  5
2B
102
{ACAD_REACTORS
330
2A
102
}
330
2A
100
AcDbVisualStyle
  2
Flat
 70
     0
 71
     2
 72
     1
 73
     1
 90
        2
 40
-0.6
 41
30.0
 62
     5
 63
     7
421
 16777215
 74
     0
 91
        4
 64
     7
 65
   257
 75
     1
175
     1
 42
1.0
 92
        8
 66
     7
 43
1.0
 76
     1
 77
     6
 78
     2
 67
     7
 79
     5
170
     0
171
     0
290
     0
174
     0
 93
       13
 44
0.0
173
     0
291
     1
 45
0.0
1001
ACAD
1000
AcDbSavedByObjectVersion
1070
     0
  0
VISUALSTYLE
  5
2C
102
{ACAD_REACTORS
330
2A
102
}
330
2A
100
AcDbVisualStyle
  2
FlatWithEdges
 70
     1
 71
     2
 72
     1
 73
     1
 90
        2
 40
-0.6
 41
30.0
 62
     5
 63
     7
421
 16777215
 74
     1
 91
        4
 64
     7
 65
   257
 75
     1
175
     1
 42
1.0
 92
        0
 66
   257
 43
1.0
 76
     1
 77
     6
 78
     2
 67
     7
 79
     5
170
     0
171
     0
290
     0
174
     0
 93
       13
 44
0.0
173
     0
291
     1
 45
0.0
1001
ACAD
1000
AcDbSavedByObjectVersion
1070
     0
  0
VISUALSTYLE
  5
2D
102
{ACAD_REACTORS
330
2A
102
}
330
2A
100
AcDbVisualStyle
  2
Gouraud
 70
     2
 71
     2
 72
     2
 73
     1
 90
        2
 40
-0.6
 41
30.0
 62
     5
 63
     7
421
 16777215
 74
     0
 91
        4
 64
     7
 65
   257
 75
     1
175
     1
 42
1.0
 92
        0
 66
     7
 43
1.0
 76
     1
 77
     6
 78
     2
 67
     7
 79
     5
170
     0
171
     0
290
     0
174
     0
 93
       13
 44
0.0
173
     0
291
     1
 45
0.0
1001
ACAD
1000
AcDbSavedByObjectVersion
1070
     0
  0
VISUALSTYLE
  5
2E
102
{ACAD_REACTORS
330
2A
102
}
330
2A
100
AcDbVisualStyle
  2
GouraudWithEdges
 70
     3
 71
     2
 72
     2
 73
     1
 90
        2
 40
-0.6
 41
30.0
 62
     5
 63
     7
421
 16777215
 74
     1
 91
        4
 64
     7
 65
   257
 75
     1
175
     1
 42
1.0
 92
        0
 66
   257
 43
1.0
 76
     1
 77
     6
 78
     2
 67
     7
 79
     5
170
     0
171
     0
290
     0
174
     0
 93
       13
 44
0.0
173
     0
291
     1
 45
0.0
1001
ACAD
1000
AcDbSavedByObjectVersion
1070
     0
  0
VISUALSTYLE
  5
38
102
{ACAD_REACTORS
330
2A
102
}
330
2A
100
AcDbVisualStyle
  2
Linepattern
 70
    14
 71
     2
 72
     2
 73
     0
 90
        0
 40
-0.6
 41
-30.0
 62
     5
 63
     7
421
 16777215
 74
     1
 91
        4
 64
     7
 65
   257
 75
     7
175
     7
 42
1.0
 92
        8
 66
     7
 43
1.0
 76
     1
 77
     6
 78
     2
 67
     7
 79
     5
170
     0
171
     0
290
     0
174
     0
 93
        1
 44
0.0
173
     0
291
     1
 45
0.0
1001
ACAD
1000
AcDbSavedByObjectVersion
1070
     0
  0
VISUALSTYLE
  5
33
102
{ACAD_REACTORS
330
2A
102
}
330
2A
100
AcDbVisualStyle
  2
Realistic
 70
     8
 71
     2
 72
     2
 73
     0
 90
        0
 40
-0.6
 41
-30.0
 62
     5
 63
     7
421
 16777215
 74
     1
 91
        0
 64
     7
 65
   257
 75
     1
175
     1
 42
1.0
 92
        8
 66
     8
424
  7895160
 43
1.0
 76
     1
 77
     6
 78
     2
 67
     7
 79
     5
170
     0
171
     0
290
     0
174
     0
 93
       13
 44
0.0
173
     0
291
     0
 45
0.0
1001
ACAD
1000
AcDbSavedByObjectVersion
1070
     0
  0
VISUALSTYLE
  5
37
102
{ACAD_REACTORS
330
2A
102
}
330
2A
100
AcDbVisualStyle
  2
Thicken
 70
    13
 71
     2
 72
     2
 73
     0
 90
        0
 40
-0.6
 41
-30.0
 62
     5
 63
     7
421
 16777215
 74
     1
 91
        4
 64
     7
 65
   257
 75
     1
175
     1
 42
1.0
 92
       12
 66
     7
 43
1.0
 76
     1
 77
     6
 78
     2
 67
     7
 79
     5
170
     0
171
     0
290
     0
174
     0
 93
        1
 44
0.0
173
     0
291
     1
 45
0.0
1001
ACAD
1000
AcDbSavedByObjectVersion
1070
     0
  0
ENDSEC
  0
EOF
