  0
SECTION
  2
HEADER
  9
$ACADVER
  1
AC1009
  9
$INSBASE
 10
0
 20
0
  9
$EXTMIN
 10
0
 20
0
  9
$EXTMAX
 10
900
 20
230
  9
$LIMMIN
 10
0
 20
0
  9
$LIMMAX
 10
900
 20
230
  9
$VIEWCTR
 10
10
 20
10
  9
$VIEWSIZE
 40
10
  9
$SNAPMODE
 70
0
  9
$SNAPUNIT
 10
1
 20
1
  9
$SNAPBASE
 10
0
 20
0
  9
$SNAPANG
 50
0
  9
$SNAPSTYLE
 70
0
  9
$SNAPISOPAIR
 70
0
  9
$GRIDMODE
 70
0
  9
$GRIDUNIT
 10
0
 20
0
  9
$ORTHOMODE
 70
0
  9
$REGENMODE
 70
1
  9
$FILLMODE
 70
1
  9
$QTEXTMODE
 70
0
  9
$DRAGMODE
 70
2
  9
$LTSCALE
 40
1
  9
$OSMODE
 70
0
  9
$ATTMODE
 70
1
  9
$TEXTSIZE
 40
3.5
  9
$TRACEWID
 40
0.5
  9
$TEXTSTYLE
  7
STANDARD
  9
$CLAYER
  8
0
  9
$CELTYPE
  6
BYLAYER
  9
$CECOLOR
 62
256
  9
$DIMSCALE
 40
1
  9
$DIMASZ
 40
0.18
  9
$DIMEXO
 40
0.0625
  9
$DIMDLI
 40
0.38
  9
$DIMRND
 40
0
  9
$DIMDLE
 40
0
  9
$DIMEXE
 40
0.18
  9
$DIMTP
 40
0
  9
$DIMTM
 40
0
  9
$DIMTXT
 40
0.18
  9
$DIMCEN
 40
0.09
  9
$DIMTSZ
 40
0
  9
$DIMTOL
 70
0
  9
$DIMLIM
 70
0
  9
$DIMTIH
 70
1
  9
$DIMTOH
 70
1
  9
$DIMSE1
 70
0
  9
$DIMSE2
 70
0
  9
$DIMTAD
 70
0
  9
$DIMZIN
 70
0
  9
$DIMBLK
  1

  9
$DIMASO
 70
1
  9
$DIMSHO
 70
1
  9
$DIMPOST
  1

  9
$DIMAPOST
  1

  9
$DIMALT
 70
0
  9
$DIMALTD
 70
2
  9
$DIMALTF
 40
25.4
  9
$DIMLFAC
 40
1
  9
$DIMTOFL
 70
0
  9
$DIMTVP
 40
0
  9
$DIMTIX
 70
0
  9
$DIMSOXD
 70
0
  9
$DIMSAH
 70
0
  9
$DIMBLK1
  1

  9
$DIMBLK2
  1

  9
$DIMSTYLE
  2
*UNNAMED
  9
$DIMCLRD
 70
0
  9
$DIMCLRE
 70
0
  9
$DIMCLRT
 70
0
  9
$DIMTFAC
 40
1
  9
$DIMGAP
 40
0.09
  9
$LUNITS
 70
2
  9
$LUPREC
 70
4
  9
$AXISMODE
 70
0
  9
$AXISUNIT
 10
0
 20
0
  9
$SKETCHINC
 40
0.1
  9
$FILLETRAD
 40
2
  9
$AUNITS
 70
0
  9
$AUPREC
 70
0
  9
$MENU
  1
ACAD
  9
$ELEVATION
 40
0
  9
$THICKNESS
 40
0
  9
$VIEWDIR
 10
0
 20
0
 30
1
  9
$LIMCHECK
 70
0
  9
$BLIPMODE
 70
1
  9
$CHAMFERA
 40
0
  9
$CHAMFERB
 40
0
  9
$FASTZOOM
 70
1
  9
$SKPOLY
 70
0
  9
$ANGBASE
 50
0
  9
$ANGDIR
 70
0
  9
$PDMODE
 70
0
  9
$PDSIZE
 40
0
  9
$PLINEWID
 40
0
  9
$COORDS
 70
2
  0
ENDSEC
  0
SECTION
  2
TABLES
  0
TABLE
  2
DIMSTYLE
 70
0
  0
ENDTAB
  0
TABLE
  2
LTYPE
 70
9
  0
LTYPE
  2
CONTINUOUS
 70
64
  3
Solid line
 72
65
 73
0
 40
0
  0
LTYPE
  2
BORDER
 70
64
  3
__ __ . __ __ .
 72
65
 73
6
 40
41.44736842105264
 49
11.8421052631579
 49
-5.921052631578948
 49
11.8421052631579
 49
-5.921052631578948
 49
0
 49
-5.921052631578948
  0
LTYPE
  2
CENTER
 70
64
  3
____ _ ____ _
 72
65
 73
4
 40
47.36842105263158
 49
29.60526315789474
 49
-5.921052631578948
 49
5.921052631578948
 49
-5.921052631578948
  0
LTYPE
  2
DASHDOT
 70
64
  3
__ . __ . __ .
 72
65
 73
4
 40
23.68421052631579
 49
11.8421052631579
 49
-5.921052631578948
 49
0
 49
-5.921052631578948
  0
LTYPE
  2
DASHED
 70
64
  3
__ __ __ __ __
 72
65
 73
2
 40
17.76315789473684
 49
11.8421052631579
 49
-5.921052631578948
  0
LTYPE
  2
DIVIDE
 70
64
  3
__ . . __ . . 
 72
65
 73
6
 40
29.60526315789474
 49
11.8421052631579
 49
-5.921052631578948
 49
0
 49
-5.921052631578948
 49
0
 49
-5.921052631578948
  0
LTYPE
  2
DOT
 70
64
  3
..............
 72
65
 73
4
 40
11.8421052631579
 49
0
 49
-5.921052631578948
 49
0
 49
-5.921052631578948
  0
LTYPE
  2
HIDDEN
 70
64
  3
_ _ _ _ _ _ _
 72
65
 73
2
 40
8.881578947368421
 49
5.921052631578948
 49
-2.960526315789474
  0
LTYPE
  2
PHANTOM
 70
64
  3
_____ _ _ _____ _ _ 
 72
65
 73
6
 40
59.21052631578948
 49
29.60526315789474
 49
-5.921052631578948
 49
5.921052631578948
 49
-5.921052631578948
 49
5.921052631578948
 49
-5.921052631578948
  0
ENDTAB
  0
TABLE
  2
LAYER
 70
3
  0
LAYER
  2
1
 70
0
 62
7
  6
CONTINUOUS
  0
LAYER
  2
0
 70
0
 62
7
  6
CONTINUOUS
  0
ENDTAB
  0
TABLE
  2
STYLE
 70
4
  0
STYLE
  2
STANDARD
 70
0
 40
0
 41
1
 50
0
 71
0
 42
3.5
  3
txt
  4

  0
STYLE
  2
SIMPLEX
 70
0
 40
0
 41
1
 50
0
 71
0
 42
3.5
  3
simplex
  4

  0
STYLE
  2
COMPLEX
 70
0
 40
0
 41
1
 50
0
 71
0
 42
3.5
  3
complex
  4

  0
STYLE
  2
ITALIC
 70
0
 40
0
 41
1
 50
0
 71
0
 42
3.5
  3
italic
  4

  0
ENDTAB
  0
TABLE
  2
VIEW
 70
0
  0
ENDTAB
  0
ENDSEC
  0
SECTION
  2
BLOCKS
  0
BLOCK
  8
0
  2
DLX
 70
0
 10
257.4672489082971
 20
25
 30
0
  0
LINE
  8
1
 62
3
 10
428.6738850439961
 20
78.50599253127803
 30
0
 11
428.6738850439961
 21
76.05033454127602
 31
0
  0
LINE
  8
1
 62
3
 10
430.529858036082
 20
78.50599253127803
 30
0
 11
428.6738850439961
 21
78.50599253127803
 31
0
  0
LINE
  8
1
 62
3
 10
428.6738850439961
 20
76.05033454127602
 30
0
 11
430.661368271938
 21
76.05033454127602
 31
0
  0
LINE
  8
1
 62
3
 10
428.6738850439961
 20
72.45105578828202
 30
0
 11
427.8014373448809
 21
72.45105578828202
 31
0
  0
LINE
  8
1
 62
3
 10
430.398946745614
 20
75.20011121384187
 30
0
 11
428.6738850439961
 21
75.20011121384187
 31
0
  0
LINE
  8
1
 62
3
 10
431.4121614855339
 20
72.45105578828202
 30
0
 11
431.4121614855339
 21
74.07291105590002
 31
0
  0
LINE
  8
1
 62
3
 10
432.373348301039
 20
72.45105578828202
 30
0
 11
431.4121614855339
 21
72.45105578828202
 31
0
  0
LINE
  8
1
 62
3
 10
432.373348301039
 20
74.33068955462591
 30
0
 11
432.373348301039
 21
72.45105578828202
 31
0
  0
LINE
  8
1
 62
3
 10
430.2433572041209
 20
79.30952396345606
 30
0
 11
430.5397137864729
 21
79.30952396345606
 31
0
  0
LINE
  8
1
 62
3
 10
427.8014373448809
 20
79.30952396345606
 30
0
 11
430.2433572041209
 21
79.30952396345606
 31
0
  0
LINE
  8
1
 62
3
 10
427.8014373448809
 20
72.45105578828202
 30
0
 11
427.8014373448809
 21
79.30952396345606
 31
0
  0
LINE
  8
1
 62
3
 10
428.6738850439961
 20
75.20011121384187
 30
0
 11
428.6738850439961
 21
72.45105578828202
 31
0
  0
LINE
  8
1
 62
3
 10
384.152649757327
 20
81.38450847831996
 30
0
 11
382.0585726797131
 21
81.38450847831996
 31
0
  0
LINE
  8
1
 62
3
 10
381.442714609364
 20
70.32390241779308
 30
0
 11
384.152649757327
 21
81.38450847831996
 31
0
  0
LINE
  8
1
 62
3
 10
391.9130999973841
 20
70.32390241779308
 30
0
 11
381.442714609364
 21
70.32390241779308
 31
0
  0
LINE
  8
1
 62
3
 10
391.3711129677229
 20
68.11178120566206
 30
0
 11
391.9130999973841
 21
70.32390241779308
 31
0
  0
LINE
  8
1
 62
3
 10
378.8066505021441
 20
68.11178120566206
 30
0
 11
391.3711129677229
 21
68.11178120566206
 31
0
  0
LINE
  8
1
 62
3
 10
382.0585726797131
 20
81.38450847831996
 30
0
 11
378.8066505021441
 21
68.11178120566206
 31
0
  0
LINE
  8
1
 62
3
 10
368.611902624855
 20
72.53602362984407
 30
0
 11
372.3676177642208
 21
79.17238726626897
 31
0
  0
LINE
  8
1
 62
3
 10
373.4244209095111
 20
79.17238726626897
 30
0
 11
372.3676177642208
 21
79.17238726626897
 31
0
  0
LINE
  8
1
 62
3
 10
373.9282138713659
 20
72.53602362984407
 30
0
 11
373.4244209095111
 21
79.17238726626897
 31
0
  0
LINE
  8
1
 62
3
 10
368.611902624855
 20
72.53602362984407
 30
0
 11
373.9282138713659
 21
72.53602362984407
 31
0
  0
LINE
  8
1
 62
3
 10
366.1080925319607
 20
68.11178120566206
 30
0
 11
363.7292955433898
 21
68.11178120566206
 31
0
  0
LINE
  8
1
 62
3
 10
367.3599975783241
 20
70.32390241779308
 30
0
 11
366.1080925319607
 21
68.11178120566206
 31
0
  0
LINE
  8
1
 62
3
 10
374.0961448586879
 20
70.32390241779308
 30
0
 11
367.3599975783241
 21
70.32390241779308
 31
0
  0
LINE
  8
1
 62
3
 10
374.264075845955
 20
68.11178120566206
 30
0
 11
374.0961448586879
 21
70.32390241779308
 31
0
  0
LINE
  8
1
 62
3
 10
376.293758009024
 20
68.11178120566206
 30
0
 11
374.264075845955
 21
68.11178120566206
 31
0
  0
LINE
  8
1
 62
3
 10
375.286172085262
 20
81.38450847831996
 30
0
 11
376.293758009024
 21
68.11178120566206
 31
0
  0
LINE
  8
1
 62
3
 10
371.2407258222872
 20
81.38450847831996
 30
0
 11
375.286172085262
 21
81.38450847831996
 31
0
  0
LINE
  8
1
 62
3
 10
363.7292955433898
 20
68.11178120566206
 30
0
 11
371.2407258222872
 21
81.38450847831996
 31
0
  0
LINE
  8
1
 62
3
 10
350.7460176623558
 20
68.11178120566206
 30
0
 11
348.651940584796
 21
68.11178120566206
 31
0
  0
LINE
  8
1
 62
3
 10
353.552019959285
 20
79.56448553859786
 30
0
 11
350.7460176623558
 21
68.11178120566206
 31
0
  0
LINE
  8
1
 62
3
 10
354.192568225795
 20
77.90539462953507
 30
0
 11
353.552019959285
 21
79.56448553859786
 31
0
  0
LINE
  8
1
 62
3
 10
357.9737245615049
 20
68.11178120566206
 30
0
 11
354.192568225795
 21
77.90539462953507
 31
0
  0
LINE
  8
1
 62
3
 10
361.2164030502738
 20
68.11178120566206
 30
0
 11
357.9737245615049
 21
68.11178120566206
 31
0
  0
LINE
  8
1
 62
3
 10
364.468325227894
 20
81.38450847831996
 30
0
 11
361.2164030502738
 21
68.11178120566206
 31
0
  0
LINE
  8
1
 62
3
 10
362.3742481502798
 20
81.38450847831996
 30
0
 11
364.468325227894
 21
81.38450847831996
 31
0
  0
LINE
  8
1
 62
3
 10
359.5288162449269
 20
69.770872114746
 30
0
 11
362.3742481502798
 21
81.38450847831996
 31
0
  0
LINE
  8
1
 62
3
 10
355.0449783786519
 20
81.38450847831996
 30
0
 11
359.5288162449269
 21
69.770872114746
 31
0
  0
LINE
  8
1
 62
3
 10
351.9038627623108
 20
81.38450847831996
 30
0
 11
355.0449783786519
 21
81.38450847831996
 31
0
  0
LINE
  8
1
 62
3
 10
348.651940584796
 20
68.11178120566206
 30
0
 11
351.9038627623108
 21
81.38450847831996
 31
0
  0
LINE
  8
1
 62
3
 10
349.3909702691951
 20
81.38450847831996
 30
0
 11
347.2968931916309
 21
81.38450847831996
 31
0
  0
LINE
  8
1
 62
3
 10
347.2968931916309
 20
81.38450847831996
 30
0
 11
344.0449710140658
 21
68.11178120566206
 31
0
  0
LINE
  8
1
 62
3
 10
346.1390480916261
 20
68.11178120566206
 30
0
 11
349.3909702691951
 21
81.38450847831996
 31
0
  0
LINE
  8
1
 62
3
 10
344.0449710140658
 20
68.11178120566206
 30
0
 11
346.1390480916261
 21
68.11178120566206
 31
0
  0
LINE
  8
1
 62
3
 10
341.5517508588189
 20
76.73905393289101
 30
0
 11
343.6458279363449
 21
76.73905393289101
 31
0
  0
LINE
  8
1
 62
3
 10
340.521975502669
 20
72.53602362984407
 30
0
 11
339.9799884729018
 21
70.32390241779308
 31
0
  0
LINE
  8
1
 62
3
 10
336.3338213472687
 20
72.53602362984407
 30
0
 11
340.521975502669
 21
72.53602362984407
 31
0
  0
LINE
  8
1
 62
3
 10
336.8758083769158
 20
74.74814484203307
 30
0
 11
336.3338213472687
 21
72.53602362984407
 31
0
  0
LINE
  8
1
 62
3
 10
343.1580396097218
 20
74.74814484203307
 30
0
 11
341.5320785209498
 21
68.11178120566206
 31
0
  0
LINE
  8
1
 62
3
 10
343.1580396097218
 20
74.74814484203307
 30
0
 11
336.8758083769158
 21
74.74814484203307
 31
0
  0
LINE
  8
1
 62
3
 10
331.6036801625726
 20
70.32390241779308
 30
0
 11
333.7716282809001
 21
79.17238726626897
 31
0
  0
LINE
  8
1
 62
3
 10
333.7716282809001
 20
79.17238726626897
 30
0
 11
342.1479365911969
 21
79.17238726626897
 31
0
  0
LINE
  8
1
 62
3
 10
342.1479365911969
 20
79.17238726626897
 30
0
 11
341.5517508588189
 21
76.73905393289101
 31
0
  0
LINE
  8
1
 62
3
 10
339.9799884729018
 20
70.32390241779308
 30
0
 11
331.6036801625726
 21
70.32390241779308
 31
0
  0
LINE
  8
1
 62
3
 10
341.5320785209498
 20
68.11178120566206
 30
0
 11
328.9676160553374
 21
68.11178120566206
 31
0
  0
LINE
  8
1
 62
3
 10
344.784000698472
 20
81.38450847831996
 30
0
 11
343.6458279363449
 21
76.73905393289101
 31
0
  0
LINE
  8
1
 62
3
 10
332.2195382328812
 20
81.38450847831996
 30
0
 11
344.784000698472
 21
81.38450847831996
 31
0
  0
LINE
  8
1
 62
3
 10
328.9676160553374
 20
68.11178120566206
 30
0
 11
332.2195382328812
 21
81.38450847831996
 31
0
  0
LINE
  8
1
 62
3
 10
326.4547235623525
 20
68.11178120566206
 30
0
 11
329.7066457397618
 21
81.38450847831996
 31
0
  0
LINE
  8
1
 62
3
 10
324.3606464846328
 20
68.11178120566206
 30
0
 11
326.4547235623525
 21
68.11178120566206
 31
0
  0
LINE
  8
1
 62
3
 10
327.6125686621983
 20
81.38450847831996
 30
0
 11
324.3606464846328
 21
68.11178120566206
 31
0
  0
LINE
  8
1
 62
3
 10
329.7066457397618
 20
81.38450847831996
 30
0
 11
327.6125686621983
 21
81.38450847831996
 31
0
  0
LINE
  8
1
 62
3
 10
311.377368603595
 20
68.11178120566206
 30
0
 11
312.4613426627059
 21
72.53602362984407
 31
0
  0
LINE
  8
1
 62
3
 10
309.2832915259189
 20
68.11178120566206
 30
0
 11
311.377368603595
 21
68.11178120566206
 31
0
  0
LINE
  8
1
 62
3
 10
322.7954723776149
 20
71.97989581078195
 30
0
 11
321.8477539915023
 21
68.11178120566206
 31
0
  0
LINE
  8
1
 62
3
 10
314.0873037514813
 20
79.17238726626897
 30
0
 11
313.0033296922977
 21
74.74814484203307
 31
0
  0
LINE
  8
1
 62
3
 10
322.463612062
 20
79.17238726626897
 30
0
 11
314.0873037514813
 21
79.17238726626897
 31
0
  0
LINE
  8
1
 62
3
 10
321.3796380026781
 20
74.74814484203307
 30
0
 11
322.463612062
 21
79.17238726626897
 31
0
  0
LINE
  8
1
 62
3
 10
313.0033296922977
 20
74.74814484203307
 30
0
 11
321.3796380026781
 21
74.74814484203307
 31
0
  0
LINE
  8
1
 62
3
 10
320.8376509732354
 20
72.53602362984407
 30
0
 11
312.4613426627059
 21
72.53602362984407
 31
0
  0
LINE
  8
1
 62
3
 10
319.7536769138624
 20
68.11178120566206
 30
0
 11
320.8376509732354
 21
72.53602362984407
 31
0
  0
LINE
  8
1
 62
3
 10
321.8477539915023
 20
68.11178120566206
 30
0
 11
319.7536769138624
 21
68.11178120566206
 31
0
  0
LINE
  8
1
 62
3
 10
325.0996761690349
 20
81.38450847831996
 30
0
 11
323.2321520591815
 21
73.76220485833187
 31
0
  0
LINE
  8
1
 62
3
 10
312.5352137034553
 20
81.38450847831996
 30
0
 11
325.0996761690349
 21
81.38450847831996
 31
0
  0
LINE
  8
1
 62
3
 10
312.5352137034553
 20
81.38450847831996
 30
0
 11
309.2832915259189
 21
68.11178120566206
 31
0
  0
LINE
  8
1
 62
3
 10
296.8420006744293
 20
70.32390241779308
 30
0
 11
299.0099487927711
 21
79.17238726626897
 31
0
  0
LINE
  8
1
 62
3
 10
299.0099487927711
 20
79.17238726626897
 30
0
 11
307.3862571032607
 21
79.17238726626897
 31
0
  0
LINE
  8
1
 62
3
 10
307.3862571032607
 20
79.17238726626897
 30
0
 11
305.2183089847842
 21
70.32390241779308
 31
0
  0
LINE
  8
1
 62
3
 10
305.2183089847842
 20
70.32390241779308
 30
0
 11
296.8420006744293
 21
70.32390241779308
 31
0
  0
LINE
  8
1
 62
3
 10
306.7703990327884
 20
68.11178120566206
 30
0
 11
294.2059365672633
 21
68.11178120566206
 31
0
  0
LINE
  8
1
 62
3
 10
310.0223212104631
 20
81.38450847831996
 30
0
 11
306.7703990327884
 21
68.11178120566206
 31
0
  0
LINE
  8
1
 62
3
 10
297.4578587447451
 20
81.38450847831996
 30
0
 11
310.0223212104631
 21
81.38450847831996
 31
0
  0
LINE
  8
1
 62
3
 10
294.2059365672633
 20
68.11178120566206
 30
0
 11
297.4578587447451
 21
81.38450847831996
 31
0
  0
LINE
  8
1
 62
3
 10
437.7967520605039
 20
25
 30
0
 11
385.205950641694
 21
25
 31
0
  0
LINE
  8
1
 62
3
 10
435.396079693985
 20
31.19393939390989
 30
0
 11
392.5869301418118
 21
31.19393939390989
 31
0
  0
LINE
  8
1
 62
3
 10
435.396079693985
 20
31.19393939390989
 30
0
 11
437.7967520605039
 21
25
 31
0
  0
LINE
  8
1
 62
3
 10
428.154079617203
 20
49.87891706682399
 30
0
 11
425.3742264932459
 21
57.05117514507901
 31
0
  0
LINE
  8
1
 62
3
 10
433.7513057974891
 20
57.05117514507901
 30
0
 11
428.154079617203
 21
49.87891706682399
 31
0
  0
LINE
  8
1
 62
3
 10
437.7967520605471
 20
57.05117514507901
 30
0
 11
433.7513057974891
 21
57.05117514507901
 31
0
  0
LINE
  8
1
 62
3
 10
429.496522015465
 20
46.41530121860296
 30
0
 11
437.7967520605471
 21
57.05117514507901
 31
0
  0
LINE
  8
1
 62
3
 10
434.3672201084689
 20
33.84848484847714
 30
0
 11
429.496522015465
 21
46.41530121860296
 31
0
  0
LINE
  8
1
 62
3
 10
430.3217738454209
 20
33.84848484847714
 30
0
 11
434.3672201084689
 21
33.84848484847714
 31
0
  0
LINE
  8
1
 62
3
 10
426.7935181507369
 20
42.95168537050199
 30
0
 11
430.3217738454209
 21
33.84848484847714
 31
0
  0
LINE
  8
1
 62
3
 10
419.6893855706351
 20
33.84848484847714
 30
0
 11
426.7935181507369
 21
42.95168537050199
 31
0
  0
LINE
  8
1
 62
3
 10
415.6439393076378
 20
33.84848484847714
 30
0
 11
419.6893855706351
 21
33.84848484847714
 31
0
  0
LINE
  8
1
 62
3
 10
425.4510757524279
 20
46.41530121866094
 30
0
 11
415.6439393076378
 21
33.84848484847714
 31
0
  0
LINE
  8
1
 62
3
 10
421.3287802302311
 20
57.05117514507901
 30
0
 11
425.4510757524279
 21
46.41530121866094
 31
0
  0
LINE
  8
1
 62
3
 10
425.3742264932459
 20
57.05117514507901
 30
0
 11
421.3287802302311
 21
57.05117514507901
 31
0
  0
LINE
  8
1
 62
3
 10
408.3455023491861
 20
57.05117514507901
 30
0
 11
403.110309655264
 21
57.05117514507901
 31
0
  0
LINE
  8
1
 62
3
 10
403.744635485835
 20
38.27272727279706
 30
0
 11
408.3455023491861
 21
57.05117514507901
 31
0
  0
LINE
  8
1
 62
3
 10
408.9798281797869
 20
38.27272727279706
 30
0
 11
403.744635485835
 21
38.27272727279706
 31
0
  0
LINE
  8
1
 62
3
 10
413.5806950431822
 20
57.05117514507901
 30
0
 11
408.9798281797869
 21
38.27272727279706
 31
0
  0
LINE
  8
1
 62
3
 10
418.815887737105
 20
57.05117514507901
 30
0
 11
413.5806950431822
 21
57.05117514507901
 31
0
  0
LINE
  8
1
 62
3
 10
413.131046814497
 20
33.84848484847714
 30
0
 11
418.815887737105
 21
57.05117514507901
 31
0
  0
LINE
  8
1
 62
3
 10
397.4254687325761
 20
33.84848484847714
 30
0
 11
413.131046814497
 21
33.84848484847714
 31
0
  0
LINE
  8
1
 62
3
 10
403.110309655264
 20
57.05117514507901
 30
0
 11
397.4254687325761
 21
33.84848484847714
 31
0
  0
LINE
  8
1
 62
3
 10
395.7686748306351
 20
68.11178120566206
 30
0
 11
385.205950641694
 21
25
 31
0
  0
LINE
  8
1
 62
3
 10
401.6320906479029
 20
68.11178120566206
 30
0
 11
395.7686748306351
 21
68.11178120566206
 31
0
  0
LINE
  8
1
 62
3
 10
392.5869301418118
 20
31.19393939390989
 30
0
 11
401.6320906479029
 21
68.11178120566206
 31
0
  0
LINE
  8
1
 62
3
 10
257.4672489082971
 20
25
 30
0
 11
265.3200379493521
 21
57.05117514507901
 31
0
  0
LINE
  8
1
 62
3
 10
265.3200379493521
 20
57.05117514507901
 30
0
 11
271.6022691820492
 21
57.05117514507901
 31
0
  0
LINE
  8
1
 62
3
 10
271.6022691820492
 20
57.05117514507901
 30
0
 11
264.8334542003597
 21
29.42424242418201
 31
0
  0
LINE
  8
1
 62
3
 10
264.8334542003597
 20
29.42424242418201
 30
0
 11
270.0686468942387
 21
29.42424242418201
 31
0
  0
LINE
  8
1
 62
3
 10
270.0686468942387
 20
29.42424242418201
 30
0
 11
278.1924294501207
 21
62.58147817540498
 31
0
  0
LINE
  8
1
 62
3
 10
278.1924294501207
 20
62.58147817540498
 30
0
 11
260.5013336055874
 21
62.58147817540498
 31
0
  0
LINE
  8
1
 62
3
 10
260.5013336055874
 20
62.58147817540498
 30
0
 11
261.8563011795724
 21
68.11178120566206
 31
0
  0
LINE
  8
1
 62
3
 10
261.8563011795724
 20
68.11178120566206
 30
0
 11
285.8296282568646
 21
68.11178120566206
 31
0
  0
LINE
  8
1
 62
3
 10
285.8296282568646
 20
68.11178120566206
 30
0
 11
275.266904067945
 21
25
 31
0
  0
LINE
  8
1
 62
3
 10
275.266904067945
 20
25
 30
0
 11
257.4672489082971
 21
25
 31
0
  0
LINE
  8
1
 62
3
 10
279.4550582230716
 20
25
 30
0
 11
287.3078472640648
 21
57.05117514507901
 31
0
  0
LINE
  8
1
 62
3
 10
287.3078472640648
 20
57.05117514507901
 30
0
 11
293.5900784968746
 21
57.05117514507901
 31
0
  0
LINE
  8
1
 62
3
 10
286.8212635150796
 20
29.42424242418201
 30
0
 11
292.0564562090642
 21
29.42424242418201
 31
0
  0
LINE
  8
1
 62
3
 10
292.0564562090642
 20
29.42424242418201
 30
0
 11
298.8252711908701
 21
57.05117514507901
 31
0
  0
LINE
  8
1
 62
3
 10
297.2547133826612
 20
25
 30
0
 11
279.4550582230716
 21
25
 31
0
  0
LINE
  8
1
 62
3
 10
298.8252711908701
 20
57.05117514507901
 30
0
 11
305.1075024236764
 21
57.05117514507901
 31
0
  0
LINE
  8
1
 62
3
 10
305.1075024236764
 20
57.05117514507901
 30
0
 11
297.2547133826612
 21
25
 31
0
  0
LINE
  8
1
 62
3
 10
326.0482731996112
 20
57.05117514507901
 30
0
 11
309.2956565788393
 21
57.05117514507901
 31
0
  0
LINE
  8
1
 62
3
 10
309.2956565788393
 20
57.05117514507901
 30
0
 11
304.6947897154479
 21
38.27272727279706
 31
0
  0
LINE
  8
1
 62
3
 10
304.6947897154479
 20
38.27272727279706
 30
0
 11
315.1651751034137
 21
38.27272727279706
 31
0
  0
LINE
  8
1
 62
3
 10
315.1651751034137
 20
38.27272727279706
 30
0
 11
312.9972269849952
 21
29.42424242418201
 31
0
  0
LINE
  8
1
 62
3
 10
312.9972269849952
 20
29.42424242418201
 30
0
 11
302.5268415970842
 21
29.42424242418201
 31
0
  0
LINE
  8
1
 62
3
 10
302.5268415970842
 20
29.42424242418201
 30
0
 11
301.4428675377769
 21
25
 31
0
  0
LINE
  8
1
 62
3
 10
301.4428675377769
 20
25
 30
0
 11
318.1954841585994
 21
25
 31
0
  0
LINE
  8
1
 62
3
 10
318.1954841585994
 20
25
 30
0
 11
322.5313803955235
 21
42.69696969695303
 31
0
  0
LINE
  8
1
 62
3
 10
322.5313803955235
 20
42.69696969695303
 30
0
 11
312.0609950074597
 21
42.69696969695303
 31
0
  0
LINE
  8
1
 62
3
 10
312.0609950074597
 20
42.69696969695303
 30
0
 11
314.4939137524727
 21
52.62693272083902
 31
0
  0
LINE
  8
1
 62
3
 10
314.4939137524727
 20
52.62693272083902
 30
0
 11
324.9642991404526
 21
52.62693272083902
 31
0
  0
LINE
  8
1
 62
3
 10
324.9642991404526
 20
52.62693272083902
 30
0
 11
326.0482731996112
 21
57.05117514507901
 31
0
  0
LINE
  8
1
 62
3
 10
344.2791088276188
 20
45.99056908441298
 30
0
 11
346.9890439755488
 21
57.05117514507901
 31
0
  0
LINE
  8
1
 62
3
 10
346.9890439755488
 20
57.05117514507901
 30
0
 11
330.2364273548283
 21
57.05117514507901
 31
0
  0
LINE
  8
1
 62
3
 10
330.2364273548283
 20
57.05117514507901
 30
0
 11
322.3836383138353
 21
25
 31
0
  0
LINE
  8
1
 62
3
 10
322.3836383138353
 20
25
 30
0
 11
339.136254934589
 21
25
 31
0
  0
LINE
  8
1
 62
3
 10
339.136254934589
 20
25
 30
0
 11
341.8461900825632
 21
36.06060606060805
 31
0
  0
LINE
  8
1
 62
3
 10
341.8461900825632
 20
36.06060606060805
 30
0
 11
335.563958849775
 21
36.06060606060805
 31
0
  0
LINE
  8
1
 62
3
 10
335.563958849775
 20
36.06060606060805
 30
0
 11
333.9379977609879
 21
29.42424242418201
 31
0
  0
LINE
  8
1
 62
3
 10
333.9379977609879
 20
29.42424242418201
 30
0
 11
329.7498436057851
 21
29.42424242418201
 31
0
  0
LINE
  8
1
 62
3
 10
329.7498436057851
 20
29.42424242418201
 30
0
 11
335.4346845284147
 21
52.62693272083902
 31
0
  0
LINE
  8
1
 62
3
 10
335.4346845284147
 20
52.62693272083902
 30
0
 11
339.6228386836069
 21
52.62693272083902
 31
0
  0
LINE
  8
1
 62
3
 10
339.6228386836069
 20
52.62693272083902
 30
0
 11
337.9968775948128
 21
45.99056908441298
 31
0
  0
LINE
  8
1
 62
3
 10
337.9968775948128
 20
45.99056908441298
 30
0
 11
344.2791088276188
 21
45.99056908441298
 31
0
  0
LINE
  8
1
 62
3
 10
343.3244090897699
 20
25
 30
0
 11
349.606640322558
 21
25
 31
0
  0
LINE
  8
1
 62
3
 10
360.0770257106328
 20
25
 30
0
 11
367.9298147516477
 21
57.05117514507901
 31
0
  0
LINE
  8
1
 62
3
 10
353.7947944777359
 20
25
 30
0
 11
357.1792019686309
 21
38.81346636034095
 31
0
  0
LINE
  8
1
 62
3
 10
349.606640322558
 20
25
 30
0
 11
352.991047813443
 21
38.81346636034095
 31
0
  0
LINE
  8
1
 62
3
 10
351.1771981307629
 20
57.05117514507901
 30
0
 11
343.3244090897699
 21
25
 31
0
  0
LINE
  8
1
 62
3
 10
367.9298147516477
 20
57.05117514507901
 30
0
 11
361.6475835187318
 21
57.05117514507901
 31
0
  0
LINE
  8
1
 62
3
 10
364.2651798657589
 20
25
 30
0
 11
381.017796486567
 21
25
 31
0
  0
LINE
  8
1
 62
3
 10
375.8195393128647
 20
29.42424242418201
 30
0
 11
371.631385157764
 21
29.42424242418201
 31
0
  0
LINE
  8
1
 62
3
 10
372.1179689067562
 20
57.05117514507901
 30
0
 11
364.2651798657589
 21
25
 31
0
  0
LINE
  8
1
 62
3
 10
371.631385157764
 20
29.42424242418201
 30
0
 11
377.3162260803388
 21
52.62693272083902
 31
0
  0
LINE
  8
1
 62
3
 10
388.8705855275859
 20
57.05117514507901
 30
0
 11
372.1179689067562
 21
57.05117514507901
 31
0
  0
LINE
  8
1
 62
3
 10
377.3162260803388
 20
52.62693272083902
 30
0
 11
381.5043802355892
 21
52.62693272083902
 31
0
  0
LINE
  8
1
 62
3
 10
381.5043802355892
 20
52.62693272083902
 30
0
 11
375.8195393128647
 21
29.42424242418201
 31
0
  0
LINE
  8
1
 62
3
 10
388.8705855275859
 20
57.05117514507901
 30
0
 11
381.017796486567
 21
25
 31
0
  0
LINE
  8
1
 62
3
 10
357.459429363628
 20
57.05117514507901
 30
0
 11
351.1771981307629
 21
57.05117514507901
 31
0
  0
LINE
  8
1
 62
3
 10
353.7947944777359
 20
25
 30
0
 11
360.0770257106328
 21
25
 31
0
  0
LINE
  8
1
 62
3
 10
352.991047813443
 20
38.81346636034095
 30
0
 11
357.1792019686309
 21
38.81346636034095
 31
0
  0
LINE
  8
1
 62
3
 10
354.0750218726118
 20
43.23770878452717
 30
0
 11
358.2631760278509
 21
43.23770878452717
 31
0
  0
LINE
  8
1
 62
3
 10
354.0750218726118
 20
43.23770878452717
 30
0
 11
357.459429363628
 21
57.05117514507901
 31
0
  0
LINE
  8
1
 62
3
 10
358.2631760278509
 20
43.23770878452717
 30
0
 11
361.6475835187318
 21
57.05117514507901
 31
0
  0
LINE
  8
1
 62
3
 10
323.2321520591815
 20
73.76220485833187
 30
0
 11
322.5000692902343
 21
72.97844787236295
 31
0
  0
LINE
  8
1
 62
3
 10
322.7954723776149
 20
71.97989581078195
 30
0
 11
322.5000692902343
 21
72.97844787236295
 31
0
  0
LINE
  8
1
 62
3
 10
293.5900784968746
 20
57.05117514507901
 30
0
 11
286.8212635150796
 21
29.42424242418201
 31
0
  0
ARC
  8
1
 62
3
 10
430.9818356998931
 20
74.36223368222591
 30
0
 40
1.39187009132817
 50
358.7013873342734
 51
66.54486649405411
  0
ARC
  8
1
 62
3
 10
430.256442513403
 20
74.05303938982206
 30
0
 40
1.155889798231655
 50
0.9850581704851609
 51
82.91825463292925
  0
ARC
  8
1
 62
3
 10
430.3316251515989
 20
77.26402593055104
 30
0
 40
1.257687287767228
 50
285.1995809529403
 51
80.93139523879066
  0
ARC
  8
1
 62
3
 10
430.4099429776131
 20
77.30391992138107
 30
0
 40
2.009798008861517
 50
304.0700115354184
 51
86.29788871826669
  0
CIRCLE
  8
1
 62
3
 10
430.2031241462341
 20
75.87878787875502
 30
0
 40
5.530127989695984
  0
CIRCLE
  8
1
 62
3
 10
430.2031241462341
 20
75.87878787875502
 30
0
 40
5.972862778753957
  0
ENDBLK
  8
0
  0
BLOCK
  8
0
  2
WANNENF_SSE
 70
0
 10
-50
 20
0
 30
0
  0
LINE
  8
1
 62
2
 10
194
 20
25
 30
0
 11
224
 21
25
 31
0
  0
LINE
  8
1
 62
2
 10
199
 20
55
 30
0
 11
219
 21
55
 31
0
  0
LINE
  8
1
 62
2
 10
204
 20
85
 30
0
 11
214
 21
85
 31
0
  0
LINE
  8
1
 62
2
 10
194
 20
0
 30
0
 11
194
 21
25
 31
0
  0
LINE
  8
1
 62
2
 10
224
 20
0
 30
0
 11
224
 21
25
 31
0
  0
LINE
  8
1
 62
2
 10
219
 20
25
 30
0
 11
219
 21
55
 31
0
  0
LINE
  8
1
 62
2
 10
199
 20
25
 30
0
 11
199
 21
55
 31
0
  0
LINE
  8
1
 62
2
 10
199
 20
55
 30
0
 11
204
 21
85
 31
0
  0
LINE
  8
1
 62
2
 10
219
 20
55
 30
0
 11
214
 21
85
 31
0
  0
LINE
  8
1
 62
2
 10
204
 20
85
 30
0
 11
204
 21
119.0845781348551
 31
0
  0
LINE
  8
1
 62
2
 10
214
 20
85
 30
0
 11
214
 21
118.78778507517
 31
0
  0
LINE
  8
1
 62
2
 10
609
 20
25
 30
0
 11
639
 21
25
 31
0
  0
LINE
  8
1
 62
2
 10
614
 20
55
 30
0
 11
634
 21
55
 31
0
  0
LINE
  8
1
 62
2
 10
619
 20
85
 30
0
 11
629
 21
85
 31
0
  0
LINE
  8
1
 62
2
 10
609
 20
0
 30
0
 11
609
 21
25
 31
0
  0
LINE
  8
1
 62
2
 10
639
 20
0
 30
0
 11
639
 21
25
 31
0
  0
LINE
  8
1
 62
2
 10
634
 20
25
 30
0
 11
634
 21
55
 31
0
  0
LINE
  8
1
 62
2
 10
614
 20
25
 30
0
 11
614
 21
55
 31
0
  0
LINE
  8
1
 62
2
 10
614
 20
55
 30
0
 11
619
 21
85
 31
0
  0
LINE
  8
1
 62
2
 10
634
 20
55
 30
0
 11
629
 21
85
 31
0
  0
LINE
  8
1
 62
2
 10
619
 20
85
 30
0
 11
619
 21
106.767666157946
 31
0
  0
LINE
  8
1
 62
2
 10
629
 20
85
 30
0
 11
629
 21
106.470873098262
 31
0
  0
LINE
  8
1
 62
2
 10
851
 20
25
 30
0
 11
881
 21
25
 31
0
  0
LINE
  8
1
 62
2
 10
856
 20
55
 30
0
 11
876
 21
55
 31
0
  0
LINE
  8
1
 62
2
 10
861
 20
85
 30
0
 11
871
 21
85
 31
0
  0
LINE
  8
1
 62
2
 10
851
 20
0
 30
0
 11
851
 21
25
 31
0
  0
LINE
  8
1
 62
2
 10
881
 20
0
 30
0
 11
881
 21
25
 31
0
  0
LINE
  8
1
 62
2
 10
876
 20
25
 30
0
 11
876
 21
55
 31
0
  0
LINE
  8
1
 62
2
 10
856
 20
25
 30
0
 11
856
 21
55
 31
0
  0
LINE
  8
1
 62
2
 10
856
 20
55
 30
0
 11
861
 21
85
 31
0
  0
LINE
  8
1
 62
2
 10
876
 20
55
 30
0
 11
871
 21
85
 31
0
  0
LINE
  8
1
 62
2
 10
861
 20
85
 30
0
 11
861
 21
135
 31
0
  0
LINE
  8
1
 62
2
 10
871
 20
85
 30
0
 11
871
 21
135
 31
0
  0
ENDBLK
  8
0
  0
BLOCK
  8
0
  2
WANNE_ANCONA_TREND_641
 70
0
 10
0
 20
230
 30
0
  0
LINE
  8
1
 62
7
 10
794.999999999998
 20
100
 30
0
 11
818.8350699999969
 21
120
 31
0
  0
LINE
  8
1
 62
7
 10
704.999999999998
 20
100
 30
0
 11
794.999999999998
 21
100
 31
0
  0
LINE
  8
1
 62
7
 10
704.999999999998
 20
100
 30
0
 11
681.1649299999961
 21
120
 31
0
  0
LINE
  8
1
 62
3
  6
DASHDOT
 10
750
 20
145
 30
0
 11
750
 21
75
 31
0
  0
LINE
  8
1
 62
7
 10
0
 20
135
 30
0
 11
0
 21
170
 31
0
  0
LINE
  8
1
 62
7
 10
0
 20
170
 30
0
 11
900
 21
170
 31
0
  0
LINE
  8
1
 62
7
 10
900
 20
135
 30
0
 11
900
 21
170
 31
0
  0
LINE
  8
1
 62
7
 10
0
 20
135
 30
0
 11
162.0000000000002
 21
135
 31
0
  0
LINE
  8
1
 62
7
 10
900
 20
135
 30
0
 11
837.105931106297
 21
135
 31
0
  0
LINE
  8
1
 62
7
 10
75.94161473676559
 20
137.891868007812
 30
0
 11
678.781420999994
 21
120
 31
0
  0
LINE
  8
1
 62
7
 10
650.4380719999999
 20
105.8346059999999
 30
0
 11
177.1175700000003
 21
119.8824300000001
 31
0
  0
LINE
  8
1
 62
7
 10
60.38554496536051
 20
163.672564395931
 30
0
 11
61.44368788430518
 21
151.577930322391
 31
0
  0
LINE
  8
1
 62
7
 10
55.57906894129974
 20
168.2337400020499
 30
0
 11
4.99999999997965
 21
170
 31
0
  0
LINE
  8
1
 62
7
 10
177.1175700000003
 20
119.8824300000001
 30
0
 11
161.6519555567968
 21
135.348044443203
 31
0
  0
LINE
  8
1
 62
7
 10
650.4380719999999
 20
105.8346059999999
 30
0
 11
665.012129050388
 21
120.4086630503889
 31
0
  0
LINE
  8
1
 62
7
 10
840.000000579284
 20
168.0793576707099
 30
0
 11
836.9915539609719
 21
133.6926635539071
 31
0
  0
LINE
  8
1
 62
7
 10
840.000000579284
 20
168.0793576707099
 30
0
 11
895.0000000000121
 21
170
 31
0
  0
LINE
  8
1
 62
7
 10
678.781420999994
 20
120
 30
0
 11
822.0486335162691
 21
120
 31
0
  0
ARC
  8
1
 62
7
 10
55.40457145874018
 20
163.2367858669211
 30
0
 40
4.999999999999965
 50
4.999997875082592
 51
88.00000001092663
  0
ARC
  8
1
 62
7
 10
76.38660840416628
 20
152.8852659094209
 30
0
 40
15.00000000000003
 50
184.9999978750833
 51
268.2999999765976
  0
ARC
  8
1
 62
7
 10
822.0486335162691
 20
135
 30
0
 40
15
 50
270
 51
354.9999988310033
  0
INSERT
  8
0
  2
WANNENF_SSE
 10
-50
 20
0
 30
0
  0
ENDBLK
  8
0
  0
ENDSEC
  0
SECTION
  2
ENTITIES
  0
TEXT
  8
1
 62
2
 10
49.99999999999994
 20
195
 30
0
 40
35
  1
ANCONA Trend 641
 41
0.5993999999999999
  0
TEXT
  8
1
 62
3
 10
666.0840000000001
 20
30
 30
0
 40
35
  1
Ö 90
 41
0.5993999999999999
 72
2
 73
3
 11
750
 21
65
 31
0
  0
INSERT
  8
0
  2
DLX
 10
257.4672489082971
 20
25
 30
0
  0
INSERT
  8
0
  2
WANNE_ANCONA_TREND_641
 10
0
 20
230
 30
0
  0
ENDSEC
  0
EOF
