  0
SECTION
  2
HEADER
  9
$ACADVER
  1
AC1009
  9
$INSBASE
 10
0
 20
0
  9
$EXTMIN
 10
0
 20
0
  9
$EXTMAX
 10
1000
 20
1000
  9
$LIMMIN
 10
0
 20
0
  9
$LIMMAX
 10
1000
 20
1000
  9
$VIEWCTR
 10
10
 20
10
  9
$VIEWSIZE
 40
10
  9
$SNAPMODE
 70
0
  9
$SNAPUNIT
 10
1
 20
1
  9
$SNAPBASE
 10
0
 20
0
  9
$SNAPANG
 50
0
  9
$SNAPSTYLE
 70
0
  9
$SNAPISOPAIR
 70
0
  9
$GRIDMODE
 70
0
  9
$GRIDUNIT
 10
0
 20
0
  9
$ORTHOMODE
 70
0
  9
$REGENMODE
 70
1
  9
$FILLMODE
 70
1
  9
$QTEXTMODE
 70
0
  9
$DRAGMODE
 70
2
  9
$LTSCALE
 40
1
  9
$OSMODE
 70
0
  9
$ATTMODE
 70
1
  9
$TEXTSIZE
 40
3.5
  9
$TRACEWID
 40
0.5
  9
$TEXTSTYLE
  7
STANDARD
  9
$CLAYER
  8
0
  9
$CELTYPE
  6
BYLAYER
  9
$CECOLOR
 62
256
  9
$DIMSCALE
 40
1
  9
$DIMASZ
 40
0.18
  9
$DIMEXO
 40
0.0625
  9
$DIMDLI
 40
0.38
  9
$DIMRND
 40
0
  9
$DIMDLE
 40
0
  9
$DIMEXE
 40
0.18
  9
$DIMTP
 40
0
  9
$DIMTM
 40
0
  9
$DIMTXT
 40
0.18
  9
$DIMCEN
 40
0.09
  9
$DIMTSZ
 40
0
  9
$DIMTOL
 70
0
  9
$DIMLIM
 70
0
  9
$DIMTIH
 70
1
  9
$DIMTOH
 70
1
  9
$DIMSE1
 70
0
  9
$DIMSE2
 70
0
  9
$DIMTAD
 70
0
  9
$DIMZIN
 70
0
  9
$DIMBLK
  1

  9
$DIMASO
 70
1
  9
$DIMSHO
 70
1
  9
$DIMPOST
  1

  9
$DIMAPOST
  1

  9
$DIMALT
 70
0
  9
$DIMALTD
 70
2
  9
$DIMALTF
 40
25.4
  9
$DIMLFAC
 40
1
  9
$DIMTOFL
 70
0
  9
$DIMTVP
 40
0
  9
$DIMTIX
 70
0
  9
$DIMSOXD
 70
0
  9
$DIMSAH
 70
0
  9
$DIMBLK1
  1

  9
$DIMBLK2
  1

  9
$DIMSTYLE
  2
*UNNAMED
  9
$DIMCLRD
 70
0
  9
$DIMCLRE
 70
0
  9
$DIMCLRT
 70
0
  9
$DIMTFAC
 40
1
  9
$DIMGAP
 40
0.09
  9
$LUNITS
 70
2
  9
$LUPREC
 70
4
  9
$AXISMODE
 70
0
  9
$AXISUNIT
 10
0
 20
0
  9
$SKETCHINC
 40
0.1
  9
$FILLETRAD
 40
2
  9
$AUNITS
 70
0
  9
$AUPREC
 70
0
  9
$MENU
  1
ACAD
  9
$ELEVATION
 40
0
  9
$THICKNESS
 40
0
  9
$VIEWDIR
 10
0
 20
0
 30
1
  9
$LIMCHECK
 70
0
  9
$BLIPMODE
 70
1
  9
$CHAMFERA
 40
0
  9
$CHAMFERB
 40
0
  9
$FASTZOOM
 70
1
  9
$SKPOLY
 70
0
  9
$ANGBASE
 50
0
  9
$ANGDIR
 70
0
  9
$PDMODE
 70
0
  9
$PDSIZE
 40
0
  9
$PLINEWID
 40
0
  9
$COORDS
 70
2
  0
ENDSEC
  0
SECTION
  2
TABLES
  0
TABLE
  2
DIMSTYLE
 70
0
  0
ENDTAB
  0
TABLE
  2
LTYPE
 70
9
  0
LTYPE
  2
CONTINUOUS
 70
64
  3
Solid line
 72
65
 73
0
 40
0
  0
LTYPE
  2
BORDER
 70
64
  3
__ __ . __ __ .
 72
65
 73
6
 40
46.05263157894736
 49
13.1578947368421
 49
-6.578947368421052
 49
13.1578947368421
 49
-6.578947368421052
 49
0
 49
-6.578947368421052
  0
LTYPE
  2
CENTER
 70
64
  3
____ _ ____ _
 72
65
 73
4
 40
52.63157894736842
 49
32.89473684210526
 49
-6.578947368421052
 49
6.578947368421052
 49
-6.578947368421052
  0
LTYPE
  2
DASHDOT
 70
64
  3
__ . __ . __ .
 72
65
 73
4
 40
26.31578947368421
 49
13.1578947368421
 49
-6.578947368421052
 49
0
 49
-6.578947368421052
  0
LTYPE
  2
DASHED
 70
64
  3
__ __ __ __ __
 72
65
 73
2
 40
19.73684210526316
 49
13.1578947368421
 49
-6.578947368421052
  0
LTYPE
  2
DIVIDE
 70
64
  3
__ . . __ . . 
 72
65
 73
6
 40
32.89473684210526
 49
13.1578947368421
 49
-6.578947368421052
 49
0
 49
-6.578947368421052
 49
0
 49
-6.578947368421052
  0
LTYPE
  2
DOT
 70
64
  3
..............
 72
65
 73
4
 40
13.1578947368421
 49
0
 49
-6.578947368421052
 49
0
 49
-6.578947368421052
  0
LTYPE
  2
HIDDEN
 70
64
  3
_ _ _ _ _ _ _
 72
65
 73
2
 40
9.868421052631579
 49
6.578947368421052
 49
-3.289473684210526
  0
LTYPE
  2
PHANTOM
 70
64
  3
_____ _ _ _____ _ _ 
 72
65
 73
6
 40
65.78947368421052
 49
32.89473684210526
 49
-6.578947368421052
 49
6.578947368421052
 49
-6.578947368421052
 49
6.578947368421052
 49
-6.578947368421052
  0
ENDTAB
  0
TABLE
  2
LAYER
 70
5
  0
LAYER
  2
MITTELLINIEN
 70
0
 62
7
  6
CONTINUOUS
  0
LAYER
  2
1
 70
0
 62
7
  6
CONTINUOUS
  0
LAYER
  2
GEOMETRIE
 70
0
 62
7
  6
CONTINUOUS
  0
LAYER
  2
0
 70
0
 62
7
  6
CONTINUOUS
  0
ENDTAB
  0
TABLE
  2
STYLE
 70
4
  0
STYLE
  2
STANDARD
 70
0
 40
0
 41
1
 50
0
 71
0
 42
3.5
  3
txt
  4

  0
STYLE
  2
SIMPLEX
 70
0
 40
0
 41
1
 50
0
 71
0
 42
3.5
  3
simplex
  4

  0
STYLE
  2
COMPLEX
 70
0
 40
0
 41
1
 50
0
 71
0
 42
3.5
  3
complex
  4

  0
STYLE
  2
ITALIC
 70
0
 40
0
 41
1
 50
0
 71
0
 42
3.5
  3
italic
  4

  0
ENDTAB
  0
TABLE
  2
VIEW
 70
0
  0
ENDTAB
  0
ENDSEC
  0
SECTION
  2
BLOCKS
  0
BLOCK
  8
0
  2
DLX
 70
0
 10
150.0000000000001
 20
800
 30
0
  0
LINE
  8
1
 62
3
 10
321.2066361356993
 20
853.505992531278
 30
0
 11
321.2066361356993
 21
851.0503345412758
 31
0
  0
LINE
  8
1
 62
3
 10
323.0626091277849
 20
853.505992531278
 30
0
 11
321.2066361356993
 21
853.505992531278
 31
0
  0
LINE
  8
1
 62
3
 10
321.2066361356993
 20
851.0503345412758
 30
0
 11
323.1941193636413
 21
851.0503345412758
 31
0
  0
LINE
  8
1
 62
3
 10
321.2066361356993
 20
847.4510557882823
 30
0
 11
320.3341884365838
 21
847.4510557882823
 31
0
  0
LINE
  8
1
 62
3
 10
322.931697837317
 20
850.2001112138419
 30
0
 11
321.2066361356993
 21
850.2001112138419
 31
0
  0
LINE
  8
1
 62
3
 10
323.9449125772372
 20
847.4510557882823
 30
0
 11
323.9449125772372
 21
849.0729110559
 31
0
  0
LINE
  8
1
 62
3
 10
324.9060993927421
 20
847.4510557882823
 30
0
 11
323.9449125772372
 21
847.4510557882823
 31
0
  0
LINE
  8
1
 62
3
 10
324.9060993927421
 20
849.3306895546257
 30
0
 11
324.9060993927421
 21
847.4510557882823
 31
0
  0
LINE
  8
1
 62
3
 10
322.7761082958239
 20
854.3095239634563
 30
0
 11
323.0724648781758
 21
854.3095239634563
 31
0
  0
LINE
  8
1
 62
3
 10
320.3341884365838
 20
854.3095239634563
 30
0
 11
322.7761082958239
 21
854.3095239634563
 31
0
  0
LINE
  8
1
 62
3
 10
320.3341884365838
 20
847.4510557882823
 30
0
 11
320.3341884365838
 21
854.3095239634563
 31
0
  0
LINE
  8
1
 62
3
 10
321.2066361356993
 20
850.2001112138419
 30
0
 11
321.2066361356993
 21
847.4510557882823
 31
0
  0
LINE
  8
1
 62
3
 10
276.6854008490299
 20
856.3845084783202
 30
0
 11
274.5913237714163
 21
856.3845084783202
 31
0
  0
LINE
  8
1
 62
3
 10
273.975465701067
 20
845.3239024177929
 30
0
 11
276.6854008490299
 21
856.3845084783202
 31
0
  0
LINE
  8
1
 62
3
 10
284.4458510890873
 20
845.3239024177929
 30
0
 11
273.975465701067
 21
845.3239024177929
 31
0
  0
LINE
  8
1
 62
3
 10
283.903864059426
 20
843.1117812056618
 30
0
 11
284.4458510890873
 21
845.3239024177929
 31
0
  0
LINE
  8
1
 62
3
 10
271.3394015938471
 20
843.1117812056618
 30
0
 11
283.903864059426
 21
843.1117812056618
 31
0
  0
LINE
  8
1
 62
3
 10
274.5913237714163
 20
856.3845084783202
 30
0
 11
271.3394015938471
 21
843.1117812056618
 31
0
  0
LINE
  8
1
 62
3
 10
261.144653716558
 20
847.5360236298438
 30
0
 11
264.9003688559238
 21
854.1723872662687
 31
0
  0
LINE
  8
1
 62
3
 10
265.957172001214
 20
854.1723872662687
 30
0
 11
264.9003688559238
 21
854.1723872662687
 31
0
  0
LINE
  8
1
 62
3
 10
266.4609649630689
 20
847.5360236298438
 30
0
 11
265.957172001214
 21
854.1723872662687
 31
0
  0
LINE
  8
1
 62
3
 10
261.144653716558
 20
847.5360236298438
 30
0
 11
266.4609649630689
 21
847.5360236298438
 31
0
  0
LINE
  8
1
 62
3
 10
258.6408436236638
 20
843.1117812056618
 30
0
 11
256.2620466350929
 21
843.1117812056618
 31
0
  0
LINE
  8
1
 62
3
 10
259.8927486700272
 20
845.3239024177929
 30
0
 11
258.6408436236638
 21
843.1117812056618
 31
0
  0
LINE
  8
1
 62
3
 10
266.6288959503909
 20
845.3239024177929
 30
0
 11
259.8927486700272
 21
845.3239024177929
 31
0
  0
LINE
  8
1
 62
3
 10
266.7968269376582
 20
843.1117812056618
 30
0
 11
266.6288959503909
 21
845.3239024177929
 31
0
  0
LINE
  8
1
 62
3
 10
268.8265091007269
 20
843.1117812056618
 30
0
 11
266.7968269376582
 21
843.1117812056618
 31
0
  0
LINE
  8
1
 62
3
 10
267.8189231769649
 20
856.3845084783202
 30
0
 11
268.8265091007269
 21
843.1117812056618
 31
0
  0
LINE
  8
1
 62
3
 10
263.7734769139901
 20
856.3845084783202
 30
0
 11
267.8189231769649
 21
856.3845084783202
 31
0
  0
LINE
  8
1
 62
3
 10
256.2620466350929
 20
843.1117812056618
 30
0
 11
263.7734769139901
 21
856.3845084783202
 31
0
  0
LINE
  8
1
 62
3
 10
243.2787687540588
 20
843.1117812056618
 30
0
 11
241.1846916764989
 21
843.1117812056618
 31
0
  0
LINE
  8
1
 62
3
 10
246.084771050988
 20
854.5644855385976
 30
0
 11
243.2787687540588
 21
843.1117812056618
 31
0
  0
LINE
  8
1
 62
3
 10
246.725319317498
 20
852.9053946295348
 30
0
 11
246.084771050988
 21
854.5644855385976
 31
0
  0
LINE
  8
1
 62
3
 10
250.5064756532079
 20
843.1117812056618
 30
0
 11
246.725319317498
 21
852.9053946295348
 31
0
  0
LINE
  8
1
 62
3
 10
253.7491541419769
 20
843.1117812056618
 30
0
 11
250.5064756532079
 21
843.1117812056618
 31
0
  0
LINE
  8
1
 62
3
 10
257.0010763195971
 20
856.3845084783202
 30
0
 11
253.7491541419769
 21
843.1117812056618
 31
0
  0
LINE
  8
1
 62
3
 10
254.9069992419829
 20
856.3845084783202
 30
0
 11
257.0010763195971
 21
856.3845084783202
 31
0
  0
LINE
  8
1
 62
3
 10
252.0615673366299
 20
844.770872114746
 30
0
 11
254.9069992419829
 21
856.3845084783202
 31
0
  0
LINE
  8
1
 62
3
 10
247.5777294703549
 20
856.3845084783202
 30
0
 11
252.0615673366299
 21
844.770872114746
 31
0
  0
LINE
  8
1
 62
3
 10
244.4366138540138
 20
856.3845084783202
 30
0
 11
247.5777294703549
 21
856.3845084783202
 31
0
  0
LINE
  8
1
 62
3
 10
241.1846916764989
 20
843.1117812056618
 30
0
 11
244.4366138540138
 21
856.3845084783202
 31
0
  0
LINE
  8
1
 62
3
 10
241.923721360898
 20
856.3845084783202
 30
0
 11
239.8296442833341
 21
856.3845084783202
 31
0
  0
LINE
  8
1
 62
3
 10
239.8296442833341
 20
856.3845084783202
 30
0
 11
236.5777221057689
 21
843.1117812056618
 31
0
  0
LINE
  8
1
 62
3
 10
238.671799183329
 20
843.1117812056618
 30
0
 11
241.923721360898
 21
856.3845084783202
 31
0
  0
LINE
  8
1
 62
3
 10
236.5777221057689
 20
843.1117812056618
 30
0
 11
238.671799183329
 21
843.1117812056618
 31
0
  0
LINE
  8
1
 62
3
 10
234.0845019505219
 20
851.7390539328908
 30
0
 11
236.1785790280479
 21
851.7390539328908
 31
0
  0
LINE
  8
1
 62
3
 10
233.054726594372
 20
847.5360236298438
 30
0
 11
232.5127395646049
 21
845.3239024177929
 31
0
  0
LINE
  8
1
 62
3
 10
228.8665724389717
 20
847.5360236298438
 30
0
 11
233.054726594372
 21
847.5360236298438
 31
0
  0
LINE
  8
1
 62
3
 10
229.4085594686189
 20
849.7481448420331
 30
0
 11
228.8665724389717
 21
847.5360236298438
 31
0
  0
LINE
  8
1
 62
3
 10
235.6907907014249
 20
849.7481448420331
 30
0
 11
234.0648296126529
 21
843.1117812056618
 31
0
  0
LINE
  8
1
 62
3
 10
235.6907907014249
 20
849.7481448420331
 30
0
 11
229.4085594686189
 21
849.7481448420331
 31
0
  0
LINE
  8
1
 62
3
 10
224.1364312542755
 20
845.3239024177929
 30
0
 11
226.3043793726031
 21
854.1723872662687
 31
0
  0
LINE
  8
1
 62
3
 10
226.3043793726031
 20
854.1723872662687
 30
0
 11
234.6806876828999
 21
854.1723872662687
 31
0
  0
LINE
  8
1
 62
3
 10
234.6806876828999
 20
854.1723872662687
 30
0
 11
234.0845019505219
 21
851.7390539328908
 31
0
  0
LINE
  8
1
 62
3
 10
232.5127395646049
 20
845.3239024177929
 30
0
 11
224.1364312542755
 21
845.3239024177929
 31
0
  0
LINE
  8
1
 62
3
 10
234.0648296126529
 20
843.1117812056618
 30
0
 11
221.5003671470404
 21
843.1117812056618
 31
0
  0
LINE
  8
1
 62
3
 10
237.3167517901749
 20
856.3845084783202
 30
0
 11
236.1785790280479
 21
851.7390539328908
 31
0
  0
LINE
  8
1
 62
3
 10
224.7522893245841
 20
856.3845084783202
 30
0
 11
237.3167517901749
 21
856.3845084783202
 31
0
  0
LINE
  8
1
 62
3
 10
221.5003671470404
 20
843.1117812056618
 30
0
 11
224.7522893245841
 21
856.3845084783202
 31
0
  0
LINE
  8
1
 62
3
 10
218.9874746540555
 20
843.1117812056618
 30
0
 11
222.2393968314647
 21
856.3845084783202
 31
0
  0
LINE
  8
1
 62
3
 10
216.8933975763358
 20
843.1117812056618
 30
0
 11
218.9874746540555
 21
843.1117812056618
 31
0
  0
LINE
  8
1
 62
3
 10
220.1453197539013
 20
856.3845084783202
 30
0
 11
216.8933975763358
 21
843.1117812056618
 31
0
  0
LINE
  8
1
 62
3
 10
222.2393968314647
 20
856.3845084783202
 30
0
 11
220.1453197539013
 21
856.3845084783202
 31
0
  0
LINE
  8
1
 62
3
 10
203.910119695298
 20
843.1117812056618
 30
0
 11
204.9940937544088
 21
847.5360236298438
 31
0
  0
LINE
  8
1
 62
3
 10
201.8160426176219
 20
843.1117812056618
 30
0
 11
203.910119695298
 21
843.1117812056618
 31
0
  0
LINE
  8
1
 62
3
 10
215.328223469318
 20
846.9798958107817
 30
0
 11
214.3805050832053
 21
843.1117812056618
 31
0
  0
LINE
  8
1
 62
3
 10
206.6200548431843
 20
854.1723872662687
 30
0
 11
205.5360807840007
 21
849.7481448420331
 31
0
  0
LINE
  8
1
 62
3
 10
214.996363153703
 20
854.1723872662687
 30
0
 11
206.6200548431843
 21
854.1723872662687
 31
0
  0
LINE
  8
1
 62
3
 10
213.9123890943811
 20
849.7481448420331
 30
0
 11
214.996363153703
 21
854.1723872662687
 31
0
  0
LINE
  8
1
 62
3
 10
205.5360807840007
 20
849.7481448420331
 30
0
 11
213.9123890943811
 21
849.7481448420331
 31
0
  0
LINE
  8
1
 62
3
 10
213.3704020649385
 20
847.5360236298438
 30
0
 11
204.9940937544088
 21
847.5360236298438
 31
0
  0
LINE
  8
1
 62
3
 10
212.2864280055655
 20
843.1117812056618
 30
0
 11
213.3704020649385
 21
847.5360236298438
 31
0
  0
LINE
  8
1
 62
3
 10
214.3805050832053
 20
843.1117812056618
 30
0
 11
212.2864280055655
 21
843.1117812056618
 31
0
  0
LINE
  8
1
 62
3
 10
217.632427260738
 20
856.3845084783202
 30
0
 11
215.7649031508846
 21
848.7622048583316
 31
0
  0
LINE
  8
1
 62
3
 10
205.0679647951583
 20
856.3845084783202
 30
0
 11
217.632427260738
 21
856.3845084783202
 31
0
  0
LINE
  8
1
 62
3
 10
205.0679647951583
 20
856.3845084783202
 30
0
 11
201.8160426176219
 21
843.1117812056618
 31
0
  0
LINE
  8
1
 62
3
 10
189.3747517661324
 20
845.3239024177929
 30
0
 11
191.5426998844741
 21
854.1723872662687
 31
0
  0
LINE
  8
1
 62
3
 10
191.5426998844741
 20
854.1723872662687
 30
0
 11
199.9190081949637
 21
854.1723872662687
 31
0
  0
LINE
  8
1
 62
3
 10
199.9190081949637
 20
854.1723872662687
 30
0
 11
197.7510600764873
 21
845.3239024177929
 31
0
  0
LINE
  8
1
 62
3
 10
197.7510600764873
 20
845.3239024177929
 30
0
 11
189.3747517661324
 21
845.3239024177929
 31
0
  0
LINE
  8
1
 62
3
 10
199.3031501244914
 20
843.1117812056618
 30
0
 11
186.7386876589662
 21
843.1117812056618
 31
0
  0
LINE
  8
1
 62
3
 10
202.5550723021661
 20
856.3845084783202
 30
0
 11
199.3031501244914
 21
843.1117812056618
 31
0
  0
LINE
  8
1
 62
3
 10
189.9906098364481
 20
856.3845084783202
 30
0
 11
202.5550723021661
 21
856.3845084783202
 31
0
  0
LINE
  8
1
 62
3
 10
186.7386876589662
 20
843.1117812056618
 30
0
 11
189.9906098364481
 21
856.3845084783202
 31
0
  0
LINE
  8
1
 62
3
 10
330.3295031522069
 20
800
 30
0
 11
277.738701733397
 21
800
 31
0
  0
LINE
  8
1
 62
3
 10
327.9288307856879
 20
806.1939393939097
 30
0
 11
285.1196812335149
 21
806.1939393939097
 31
0
  0
LINE
  8
1
 62
3
 10
327.9288307856879
 20
806.1939393939097
 30
0
 11
330.3295031522069
 21
800
 31
0
  0
LINE
  8
1
 62
3
 10
320.6868307089059
 20
824.8789170668238
 30
0
 11
317.9069775849492
 21
832.051175145079
 31
0
  0
LINE
  8
1
 62
3
 10
326.2840568891921
 20
832.051175145079
 30
0
 11
320.6868307089059
 21
824.8789170668238
 31
0
  0
LINE
  8
1
 62
3
 10
330.3295031522501
 20
832.051175145079
 30
0
 11
326.2840568891921
 21
832.051175145079
 31
0
  0
LINE
  8
1
 62
3
 10
322.0292731071681
 20
821.415301218603
 30
0
 11
330.3295031522501
 21
832.051175145079
 31
0
  0
LINE
  8
1
 62
3
 10
326.8999712001718
 20
808.8484848484768
 30
0
 11
322.0292731071681
 21
821.415301218603
 31
0
  0
LINE
  8
1
 62
3
 10
322.8545249371239
 20
808.8484848484768
 30
0
 11
326.8999712001718
 21
808.8484848484768
 31
0
  0
LINE
  8
1
 62
3
 10
319.3262692424399
 20
817.9516853705018
 30
0
 11
322.8545249371239
 21
808.8484848484768
 31
0
  0
LINE
  8
1
 62
3
 10
312.2221366623381
 20
808.8484848484768
 30
0
 11
319.3262692424399
 21
817.9516853705018
 31
0
  0
LINE
  8
1
 62
3
 10
308.1766903993409
 20
808.8484848484768
 30
0
 11
312.2221366623381
 21
808.8484848484768
 31
0
  0
LINE
  8
1
 62
3
 10
317.9838268441309
 20
821.4153012186607
 30
0
 11
308.1766903993409
 21
808.8484848484768
 31
0
  0
LINE
  8
1
 62
3
 10
313.861531321934
 20
832.051175145079
 30
0
 11
317.9838268441309
 21
821.4153012186607
 31
0
  0
LINE
  8
1
 62
3
 10
317.9069775849492
 20
832.051175145079
 30
0
 11
313.861531321934
 21
832.051175145079
 31
0
  0
LINE
  8
1
 62
3
 10
300.8782534408892
 20
832.051175145079
 30
0
 11
295.643060746967
 21
832.051175145079
 31
0
  0
LINE
  8
1
 62
3
 10
296.2773865775379
 20
813.2727272727971
 30
0
 11
300.8782534408892
 21
832.051175145079
 31
0
  0
LINE
  8
1
 62
3
 10
301.51257927149
 20
813.2727272727971
 30
0
 11
296.2773865775379
 21
813.2727272727971
 31
0
  0
LINE
  8
1
 62
3
 10
306.1134461348851
 20
832.051175145079
 30
0
 11
301.51257927149
 21
813.2727272727971
 31
0
  0
LINE
  8
1
 62
3
 10
311.3486388288081
 20
832.051175145079
 30
0
 11
306.1134461348851
 21
832.051175145079
 31
0
  0
LINE
  8
1
 62
3
 10
305.6637979062003
 20
808.8484848484768
 30
0
 11
311.3486388288081
 21
832.051175145079
 31
0
  0
LINE
  8
1
 62
3
 10
289.9582198242792
 20
808.8484848484768
 30
0
 11
305.6637979062003
 21
808.8484848484768
 31
0
  0
LINE
  8
1
 62
3
 10
295.643060746967
 20
832.051175145079
 30
0
 11
289.9582198242792
 21
808.8484848484768
 31
0
  0
LINE
  8
1
 62
3
 10
288.3014259223382
 20
843.1117812056618
 30
0
 11
277.738701733397
 21
800
 31
0
  0
LINE
  8
1
 62
3
 10
294.1648417396062
 20
843.1117812056618
 30
0
 11
288.3014259223382
 21
843.1117812056618
 31
0
  0
LINE
  8
1
 62
3
 10
285.1196812335149
 20
806.1939393939097
 30
0
 11
294.1648417396062
 21
843.1117812056618
 31
0
  0
LINE
  8
1
 62
3
 10
150.0000000000001
 20
800
 30
0
 11
157.8527890410551
 21
832.051175145079
 31
0
  0
LINE
  8
1
 62
3
 10
157.8527890410551
 20
832.051175145079
 30
0
 11
164.1350202737522
 21
832.051175145079
 31
0
  0
LINE
  8
1
 62
3
 10
164.1350202737522
 20
832.051175145079
 30
0
 11
157.3662052920627
 21
804.424242424182
 31
0
  0
LINE
  8
1
 62
3
 10
157.3662052920627
 20
804.424242424182
 30
0
 11
162.6013979859417
 21
804.424242424182
 31
0
  0
LINE
  8
1
 62
3
 10
162.6013979859417
 20
804.424242424182
 30
0
 11
170.7251805418237
 21
837.5814781754048
 31
0
  0
LINE
  8
1
 62
3
 10
170.7251805418237
 20
837.5814781754048
 30
0
 11
153.0340846972904
 21
837.5814781754048
 31
0
  0
LINE
  8
1
 62
3
 10
153.0340846972904
 20
837.5814781754048
 30
0
 11
154.3890522712754
 21
843.1117812056618
 31
0
  0
LINE
  8
1
 62
3
 10
154.3890522712754
 20
843.1117812056618
 30
0
 11
178.3623793485676
 21
843.1117812056618
 31
0
  0
LINE
  8
1
 62
3
 10
178.3623793485676
 20
843.1117812056618
 30
0
 11
167.799655159648
 21
800
 31
0
  0
LINE
  8
1
 62
3
 10
167.799655159648
 20
800
 30
0
 11
150.0000000000001
 21
800
 31
0
  0
LINE
  8
1
 62
3
 10
171.9878093147746
 20
800
 30
0
 11
179.8405983557677
 21
832.051175145079
 31
0
  0
LINE
  8
1
 62
3
 10
179.8405983557677
 20
832.051175145079
 30
0
 11
186.1228295885776
 21
832.051175145079
 31
0
  0
LINE
  8
1
 62
3
 10
186.1228295885776
 20
832.051175145079
 30
0
 11
179.3540146067826
 21
804.424242424182
 31
0
  0
LINE
  8
1
 62
3
 10
179.3540146067826
 20
804.424242424182
 30
0
 11
184.5892073007673
 21
804.424242424182
 31
0
  0
LINE
  8
1
 62
3
 10
184.5892073007673
 20
804.424242424182
 30
0
 11
191.3580222825731
 21
832.051175145079
 31
0
  0
LINE
  8
1
 62
3
 10
189.7874644743642
 20
800
 30
0
 11
171.9878093147746
 21
800
 31
0
  0
LINE
  8
1
 62
3
 10
191.3580222825731
 20
832.051175145079
 30
0
 11
197.6402535153794
 21
832.051175145079
 31
0
  0
LINE
  8
1
 62
3
 10
197.6402535153794
 20
832.051175145079
 30
0
 11
189.7874644743642
 21
800
 31
0
  0
LINE
  8
1
 62
3
 10
218.5810242913141
 20
832.051175145079
 30
0
 11
201.8284076705422
 21
832.051175145079
 31
0
  0
LINE
  8
1
 62
3
 10
201.8284076705422
 20
832.051175145079
 30
0
 11
197.2275408071508
 21
813.2727272727971
 31
0
  0
LINE
  8
1
 62
3
 10
197.2275408071508
 20
813.2727272727971
 30
0
 11
207.6979261951166
 21
813.2727272727971
 31
0
  0
LINE
  8
1
 62
3
 10
207.6979261951166
 20
813.2727272727971
 30
0
 11
205.5299780766982
 21
804.424242424182
 31
0
  0
LINE
  8
1
 62
3
 10
205.5299780766982
 20
804.424242424182
 30
0
 11
195.0595926887872
 21
804.424242424182
 31
0
  0
LINE
  8
1
 62
3
 10
195.0595926887872
 20
804.424242424182
 30
0
 11
193.9756186294799
 21
800
 31
0
  0
LINE
  8
1
 62
3
 10
193.9756186294799
 20
800
 30
0
 11
210.7282352503025
 21
800
 31
0
  0
LINE
  8
1
 62
3
 10
210.7282352503025
 20
800
 30
0
 11
215.0641314872265
 21
817.6969696969532
 31
0
  0
LINE
  8
1
 62
3
 10
215.0641314872265
 20
817.6969696969532
 30
0
 11
204.5937460991627
 21
817.6969696969532
 31
0
  0
LINE
  8
1
 62
3
 10
204.5937460991627
 20
817.6969696969532
 30
0
 11
207.0266648441757
 21
827.6269327208388
 31
0
  0
LINE
  8
1
 62
3
 10
207.0266648441757
 20
827.6269327208388
 30
0
 11
217.4970502321556
 21
827.6269327208388
 31
0
  0
LINE
  8
1
 62
3
 10
217.4970502321556
 20
827.6269327208388
 30
0
 11
218.5810242913141
 21
832.051175145079
 31
0
  0
LINE
  8
1
 62
3
 10
236.8118599193219
 20
820.990569084413
 30
0
 11
239.5217950672517
 21
832.051175145079
 31
0
  0
LINE
  8
1
 62
3
 10
239.5217950672517
 20
832.051175145079
 30
0
 11
222.7691784465314
 21
832.051175145079
 31
0
  0
LINE
  8
1
 62
3
 10
222.7691784465314
 20
832.051175145079
 30
0
 11
214.9163894055383
 21
800
 31
0
  0
LINE
  8
1
 62
3
 10
214.9163894055383
 20
800
 30
0
 11
231.6690060262919
 21
800
 31
0
  0
LINE
  8
1
 62
3
 10
231.6690060262919
 20
800
 30
0
 11
234.3789411742661
 21
811.0606060606083
 31
0
  0
LINE
  8
1
 62
3
 10
234.3789411742661
 20
811.0606060606083
 30
0
 11
228.096709941478
 21
811.0606060606083
 31
0
  0
LINE
  8
1
 62
3
 10
228.096709941478
 20
811.0606060606083
 30
0
 11
226.4707488526909
 21
804.424242424182
 31
0
  0
LINE
  8
1
 62
3
 10
226.4707488526909
 20
804.424242424182
 30
0
 11
222.2825946974883
 21
804.424242424182
 31
0
  0
LINE
  8
1
 62
3
 10
222.2825946974883
 20
804.424242424182
 30
0
 11
227.9674356201178
 21
827.6269327208388
 31
0
  0
LINE
  8
1
 62
3
 10
227.9674356201178
 20
827.6269327208388
 30
0
 11
232.1555897753099
 21
827.6269327208388
 31
0
  0
LINE
  8
1
 62
3
 10
232.1555897753099
 20
827.6269327208388
 30
0
 11
230.5296286865159
 21
820.990569084413
 31
0
  0
LINE
  8
1
 62
3
 10
230.5296286865159
 20
820.990569084413
 30
0
 11
236.8118599193219
 21
820.990569084413
 31
0
  0
LINE
  8
1
 62
3
 10
235.8571601814729
 20
800
 30
0
 11
242.1393914142611
 21
800
 31
0
  0
LINE
  8
1
 62
3
 10
252.6097768023358
 20
800
 30
0
 11
260.4625658433508
 21
832.051175145079
 31
0
  0
LINE
  8
1
 62
3
 10
246.3275455694389
 20
800
 30
0
 11
249.7119530603339
 21
813.813466360341
 31
0
  0
LINE
  8
1
 62
3
 10
242.1393914142611
 20
800
 30
0
 11
245.5237989051461
 21
813.813466360341
 31
0
  0
LINE
  8
1
 62
3
 10
243.7099492224659
 20
832.051175145079
 30
0
 11
235.8571601814729
 21
800
 31
0
  0
LINE
  8
1
 62
3
 10
260.4625658433508
 20
832.051175145079
 30
0
 11
254.1803346104348
 21
832.051175145079
 31
0
  0
LINE
  8
1
 62
3
 10
256.7979309574619
 20
800
 30
0
 11
273.55054757827
 21
800
 31
0
  0
LINE
  8
1
 62
3
 10
268.3522904045678
 20
804.424242424182
 30
0
 11
264.1641362494673
 21
804.424242424182
 31
0
  0
LINE
  8
1
 62
3
 10
264.6507199984591
 20
832.051175145079
 30
0
 11
256.7979309574619
 21
800
 31
0
  0
LINE
  8
1
 62
3
 10
264.1641362494673
 20
804.424242424182
 30
0
 11
269.8489771720419
 21
827.6269327208388
 31
0
  0
LINE
  8
1
 62
3
 10
281.4033366192892
 20
832.051175145079
 30
0
 11
264.6507199984591
 21
832.051175145079
 31
0
  0
LINE
  8
1
 62
3
 10
269.8489771720419
 20
827.6269327208388
 30
0
 11
274.0371313272921
 21
827.6269327208388
 31
0
  0
LINE
  8
1
 62
3
 10
274.0371313272921
 20
827.6269327208388
 30
0
 11
268.3522904045678
 21
804.424242424182
 31
0
  0
LINE
  8
1
 62
3
 10
281.4033366192892
 20
832.051175145079
 30
0
 11
273.55054757827
 21
800
 31
0
  0
LINE
  8
1
 62
3
 10
249.9921804553309
 20
832.051175145079
 30
0
 11
243.7099492224659
 21
832.051175145079
 31
0
  0
LINE
  8
1
 62
3
 10
246.3275455694389
 20
800
 30
0
 11
252.6097768023358
 21
800
 31
0
  0
LINE
  8
1
 62
3
 10
245.5237989051461
 20
813.813466360341
 30
0
 11
249.7119530603339
 21
813.813466360341
 31
0
  0
LINE
  8
1
 62
3
 10
246.607772964315
 20
818.2377087845271
 30
0
 11
250.7959271195539
 21
818.2377087845271
 31
0
  0
LINE
  8
1
 62
3
 10
246.607772964315
 20
818.2377087845271
 30
0
 11
249.9921804553309
 21
832.051175145079
 31
0
  0
LINE
  8
1
 62
3
 10
250.7959271195539
 20
818.2377087845271
 30
0
 11
254.1803346104348
 21
832.051175145079
 31
0
  0
LINE
  8
1
 62
3
 10
215.7649031508846
 20
848.7622048583316
 30
0
 11
215.0328203819373
 21
847.9784478723632
 31
0
  0
LINE
  8
1
 62
3
 10
215.328223469318
 20
846.9798958107817
 30
0
 11
215.0328203819373
 21
847.9784478723632
 31
0
  0
ARC
  8
1
 62
3
 10
323.5145867915962
 20
849.3622336822259
 30
0
 40
1.391870091328175
 50
358.701387334264
 51
66.54486649405467
  0
ARC
  8
1
 62
3
 10
322.7891936051063
 20
849.0530393898221
 30
0
 40
1.155889798231655
 50
0.9850581704851609
 51
82.91825463294325
  0
ARC
  8
1
 62
3
 10
322.8643762433018
 20
852.2640259305508
 30
0
 40
1.257687287767332
 50
285.1995809529578
 51
80.93139523878973
  0
ARC
  8
1
 62
3
 10
322.942694069316
 20
852.3039199213808
 30
0
 40
2.009798008861549
 50
304.0700115354197
 51
86.29788871826591
  0
CIRCLE
  8
1
 62
3
 10
322.735875237937
 20
850.8787878787548
 30
0
 40
5.530127989696211
  0
CIRCLE
  8
1
 62
3
 10
322.735875237937
 20
850.8787878787548
 30
0
 40
5.972862778754184
  0
ENDBLK
  8
0
  0
BLOCK
  8
0
  2
WANNE_ANCONA_TREND_645
 70
0
 10
-350
 20
-185
 30
0
  0
LINE
  8
1
 62
7
 10
0
 20
1000
 30
0
 11
1000
 21
1000
 31
0
  0
LINE
  8
1
 62
7
 10
0
 20
0
 30
0
 11
1000
 21
0
 31
0
  0
LINE
  8
1
 62
7
 10
0
 20
0
 30
0
 11
0
 21
1000
 31
0
  0
LINE
  8
1
 62
7
 10
1000
 20
1000
 30
0
 11
1000
 21
0
 31
0
  0
LINE
  8
1
 62
7
 10
940
 20
915
 30
0
 11
940
 21
85
 31
0
  0
LINE
  8
1
 62
7
 10
60
 20
915
 30
0
 11
60
 21
85
 31
0
  0
LINE
  8
1
 62
7
 10
85
 20
940
 30
0
 11
915
 21
940
 31
0
  0
LINE
  8
1
 62
7
 10
85
 20
60
 30
0
 11
915
 21
60
 31
0
  0
LINE
  8
MITTELLINIEN
 62
3
  6
DASHDOT
 10
943.989955
 20
150
 30
0
 11
754.3219810000001
 21
150
 31
0
  0
LINE
  8
MITTELLINIEN
 62
3
  6
DASHDOT
 10
850
 20
243.9899549999971
 30
0
 11
850
 21
54.32198100000096
 31
0
  0
CIRCLE
  8
GEOMETRIE
 62
7
 10
850
 20
150
 30
0
 40
45
  0
CIRCLE
  8
GEOMETRIE
 62
7
 10
850
 20
150
 30
0
 40
54.96428900000001
  0
CIRCLE
  8
GEOMETRIE
 62
7
 10
850
 20
150
 30
0
 40
68.39577899999995
  0
CIRCLE
  8
GEOMETRIE
 62
7
 10
850
 20
150
 30
0
 40
75.67802000000006
  0
ARC
  8
1
 62
7
 10
915
 20
85
 30
0
 40
25
 50
270
 51
0
  0
ARC
  8
1
 62
7
 10
85
 20
85
 30
0
 40
25
 50
180
 51
270
  0
ARC
  8
1
 62
7
 10
85
 20
915
 30
0
 40
25
 50
90
 51
180
  0
ARC
  8
1
 62
7
 10
915
 20
915
 30
0
 40
25
 50
0
 51
90
  0
ENDBLK
  8
0
  0
ENDSEC
  0
SECTION
  2
ENTITIES
  0
TEXT
  8
1
 62
2
 10
150.0000000000001
 20
725
 30
0
 40
35
  1
ANCONA Trend 645
 41
0.5993999999999999
  0
TEXT
  8
1
 62
3
 10
691.0840000000001
 20
225
 30
0
 40
35
  1
Ö 90
 41
0.5993999999999999
 72
2
 11
775
 21
225
 31
0
  0
INSERT
  8
0
  2
DLX
 10
150.0000000000001
 20
800
 30
0
  0
INSERT
  8
0
  2
WANNE_ANCONA_TREND_645
 10
-350
 20
-185
 30
0
  0
ENDSEC
  0
EOF
