  0
SECTION
  2
HEADER
  9
$ACADVER
  1
AC1009
  9
$INSBASE
 10
0
 20
0
  9
$EXTMIN
 10
0
 20
0
  9
$EXTMAX
 10
1000
 20
230
  9
$LIMMIN
 10
0
 20
0
  9
$LIMMAX
 10
1000
 20
230
  9
$VIEWCTR
 10
10
 20
10
  9
$VIEWSIZE
 40
10
  9
$SNAPMODE
 70
0
  9
$SNAPUNIT
 10
1
 20
1
  9
$SNAPBASE
 10
0
 20
0
  9
$SNAPANG
 50
0
  9
$SNAPSTYLE
 70
0
  9
$SNAPISOPAIR
 70
0
  9
$GRIDMODE
 70
0
  9
$GRIDUNIT
 10
0
 20
0
  9
$ORTHOMODE
 70
0
  9
$REGENMODE
 70
1
  9
$FILLMODE
 70
1
  9
$QTEXTMODE
 70
0
  9
$DRAGMODE
 70
2
  9
$LTSCALE
 40
1
  9
$OSMODE
 70
0
  9
$ATTMODE
 70
1
  9
$TEXTSIZE
 40
3.5
  9
$TRACEWID
 40
0.5
  9
$TEXTSTYLE
  7
STANDARD
  9
$CLAYER
  8
0
  9
$CELTYPE
  6
BYLAYER
  9
$CECOLOR
 62
256
  9
$DIMSCALE
 40
1
  9
$DIMASZ
 40
0.18
  9
$DIMEXO
 40
0.0625
  9
$DIMDLI
 40
0.38
  9
$DIMRND
 40
0
  9
$DIMDLE
 40
0
  9
$DIMEXE
 40
0.18
  9
$DIMTP
 40
0
  9
$DIMTM
 40
0
  9
$DIMTXT
 40
0.18
  9
$DIMCEN
 40
0.09
  9
$DIMTSZ
 40
0
  9
$DIMTOL
 70
0
  9
$DIMLIM
 70
0
  9
$DIMTIH
 70
1
  9
$DIMTOH
 70
1
  9
$DIMSE1
 70
0
  9
$DIMSE2
 70
0
  9
$DIMTAD
 70
0
  9
$DIMZIN
 70
0
  9
$DIMBLK
  1

  9
$DIMASO
 70
1
  9
$DIMSHO
 70
1
  9
$DIMPOST
  1

  9
$DIMAPOST
  1

  9
$DIMALT
 70
0
  9
$DIMALTD
 70
2
  9
$DIMALTF
 40
25.4
  9
$DIMLFAC
 40
1
  9
$DIMTOFL
 70
0
  9
$DIMTVP
 40
0
  9
$DIMTIX
 70
0
  9
$DIMSOXD
 70
0
  9
$DIMSAH
 70
0
  9
$DIMBLK1
  1

  9
$DIMBLK2
  1

  9
$DIMSTYLE
  2
*UNNAMED
  9
$DIMCLRD
 70
0
  9
$DIMCLRE
 70
0
  9
$DIMCLRT
 70
0
  9
$DIMTFAC
 40
1
  9
$DIMGAP
 40
0.09
  9
$LUNITS
 70
2
  9
$LUPREC
 70
4
  9
$AXISMODE
 70
0
  9
$AXISUNIT
 10
0
 20
0
  9
$SKETCHINC
 40
0.1
  9
$FILLETRAD
 40
2
  9
$AUNITS
 70
0
  9
$AUPREC
 70
0
  9
$MENU
  1
ACAD
  9
$ELEVATION
 40
0
  9
$THICKNESS
 40
0
  9
$VIEWDIR
 10
0
 20
0
 30
1
  9
$LIMCHECK
 70
0
  9
$BLIPMODE
 70
1
  9
$CHAMFERA
 40
0
  9
$CHAMFERB
 40
0
  9
$FASTZOOM
 70
1
  9
$SKPOLY
 70
0
  9
$ANGBASE
 50
0
  9
$ANGDIR
 70
0
  9
$PDMODE
 70
0
  9
$PDSIZE
 40
0
  9
$PLINEWID
 40
0
  9
$COORDS
 70
2
  0
ENDSEC
  0
SECTION
  2
TABLES
  0
TABLE
  2
DIMSTYLE
 70
0
  0
ENDTAB
  0
TABLE
  2
LTYPE
 70
9
  0
LTYPE
  2
CONTINUOUS
 70
64
  3
Solid line
 72
65
 73
0
 40
0
  0
LTYPE
  2
BORDER
 70
64
  3
__ __ . __ __ .
 72
65
 73
6
 40
46.05263157894736
 49
13.1578947368421
 49
-6.578947368421052
 49
13.1578947368421
 49
-6.578947368421052
 49
0
 49
-6.578947368421052
  0
LTYPE
  2
CENTER
 70
64
  3
____ _ ____ _
 72
65
 73
4
 40
52.63157894736842
 49
32.89473684210526
 49
-6.578947368421052
 49
6.578947368421052
 49
-6.578947368421052
  0
LTYPE
  2
DASHDOT
 70
64
  3
__ . __ . __ .
 72
65
 73
4
 40
26.31578947368421
 49
13.1578947368421
 49
-6.578947368421052
 49
0
 49
-6.578947368421052
  0
LTYPE
  2
DASHED
 70
64
  3
__ __ __ __ __
 72
65
 73
2
 40
19.73684210526316
 49
13.1578947368421
 49
-6.578947368421052
  0
LTYPE
  2
DIVIDE
 70
64
  3
__ . . __ . . 
 72
65
 73
6
 40
32.89473684210526
 49
13.1578947368421
 49
-6.578947368421052
 49
0
 49
-6.578947368421052
 49
0
 49
-6.578947368421052
  0
LTYPE
  2
DOT
 70
64
  3
..............
 72
65
 73
4
 40
13.1578947368421
 49
0
 49
-6.578947368421052
 49
0
 49
-6.578947368421052
  0
LTYPE
  2
HIDDEN
 70
64
  3
_ _ _ _ _ _ _
 72
65
 73
2
 40
9.868421052631579
 49
6.578947368421052
 49
-3.289473684210526
  0
LTYPE
  2
PHANTOM
 70
64
  3
_____ _ _ _____ _ _ 
 72
65
 73
6
 40
65.78947368421052
 49
32.89473684210526
 49
-6.578947368421052
 49
6.578947368421052
 49
-6.578947368421052
 49
6.578947368421052
 49
-6.578947368421052
  0
ENDTAB
  0
TABLE
  2
LAYER
 70
3
  0
LAYER
  2
1
 70
0
 62
7
  6
CONTINUOUS
  0
LAYER
  2
0
 70
0
 62
7
  6
CONTINUOUS
  0
ENDTAB
  0
TABLE
  2
STYLE
 70
4
  0
STYLE
  2
STANDARD
 70
0
 40
0
 41
1
 50
0
 71
0
 42
3.5
  3
txt
  4

  0
STYLE
  2
SIMPLEX
 70
0
 40
0
 41
1
 50
0
 71
0
 42
3.5
  3
simplex
  4

  0
STYLE
  2
COMPLEX
 70
0
 40
0
 41
1
 50
0
 71
0
 42
3.5
  3
complex
  4

  0
STYLE
  2
ITALIC
 70
0
 40
0
 41
1
 50
0
 71
0
 42
3.5
  3
italic
  4

  0
ENDTAB
  0
TABLE
  2
VIEW
 70
0
  0
ENDTAB
  0
ENDSEC
  0
SECTION
  2
BLOCKS
  0
BLOCK
  8
0
  2
DLX
 70
0
 10
257.4672489082972
 20
25
 30
0
  0
LINE
  8
1
 62
3
 10
293.5900784968745
 20
57.05117514507901
 30
0
 11
286.8212635150795
 21
29.42424242418201
 31
0
  0
LINE
  8
1
 62
3
 10
322.7954723776148
 20
71.97989581078195
 30
0
 11
322.5000692902344
 21
72.97844787236295
 31
0
  0
LINE
  8
1
 62
3
 10
323.2321520591814
 20
73.76220485833187
 30
0
 11
322.5000692902344
 21
72.97844787236295
 31
0
  0
LINE
  8
1
 62
3
 10
358.2631760278508
 20
43.23770878452717
 30
0
 11
361.6475835187317
 21
57.05117514507901
 31
0
  0
LINE
  8
1
 62
3
 10
354.0750218726117
 20
43.23770878452717
 30
0
 11
357.4594293636279
 21
57.05117514507901
 31
0
  0
LINE
  8
1
 62
3
 10
354.0750218726117
 20
43.23770878452717
 30
0
 11
358.2631760278508
 21
43.23770878452717
 31
0
  0
LINE
  8
1
 62
3
 10
352.9910478134431
 20
38.81346636034095
 30
0
 11
357.1792019686309
 21
38.81346636034095
 31
0
  0
LINE
  8
1
 62
3
 10
353.7947944777359
 20
25
 30
0
 11
360.0770257106328
 21
25
 31
0
  0
LINE
  8
1
 62
3
 10
357.4594293636279
 20
57.05117514507901
 30
0
 11
351.1771981307629
 21
57.05117514507901
 31
0
  0
LINE
  8
1
 62
3
 10
388.8705855275858
 20
57.05117514507901
 30
0
 11
381.017796486567
 21
25
 31
0
  0
LINE
  8
1
 62
3
 10
381.5043802355892
 20
52.62693272083902
 30
0
 11
375.8195393128648
 21
29.42424242418201
 31
0
  0
LINE
  8
1
 62
3
 10
377.3162260803389
 20
52.62693272083902
 30
0
 11
381.5043802355892
 21
52.62693272083902
 31
0
  0
LINE
  8
1
 62
3
 10
388.8705855275858
 20
57.05117514507901
 30
0
 11
372.1179689067561
 21
57.05117514507901
 31
0
  0
LINE
  8
1
 62
3
 10
371.6313851577639
 20
29.42424242418201
 30
0
 11
377.3162260803389
 21
52.62693272083902
 31
0
  0
LINE
  8
1
 62
3
 10
372.1179689067561
 20
57.05117514507901
 30
0
 11
364.2651798657589
 21
25
 31
0
  0
LINE
  8
1
 62
3
 10
375.8195393128648
 20
29.42424242418201
 30
0
 11
371.6313851577639
 21
29.42424242418201
 31
0
  0
LINE
  8
1
 62
3
 10
364.2651798657589
 20
25
 30
0
 11
381.017796486567
 21
25
 31
0
  0
LINE
  8
1
 62
3
 10
367.9298147516478
 20
57.05117514507901
 30
0
 11
361.6475835187317
 21
57.05117514507901
 31
0
  0
LINE
  8
1
 62
3
 10
351.1771981307629
 20
57.05117514507901
 30
0
 11
343.3244090897699
 21
25
 31
0
  0
LINE
  8
1
 62
3
 10
349.6066403225581
 20
25
 30
0
 11
352.9910478134431
 21
38.81346636034095
 31
0
  0
LINE
  8
1
 62
3
 10
353.7947944777359
 20
25
 30
0
 11
357.1792019686309
 21
38.81346636034095
 31
0
  0
LINE
  8
1
 62
3
 10
360.0770257106328
 20
25
 30
0
 11
367.9298147516478
 21
57.05117514507901
 31
0
  0
LINE
  8
1
 62
3
 10
343.3244090897699
 20
25
 30
0
 11
349.6066403225581
 21
25
 31
0
  0
LINE
  8
1
 62
3
 10
337.9968775948129
 20
45.99056908441298
 30
0
 11
344.2791088276189
 21
45.99056908441298
 31
0
  0
LINE
  8
1
 62
3
 10
339.6228386836069
 20
52.62693272083902
 30
0
 11
337.9968775948129
 21
45.99056908441298
 31
0
  0
LINE
  8
1
 62
3
 10
335.4346845284148
 20
52.62693272083902
 30
0
 11
339.6228386836069
 21
52.62693272083902
 31
0
  0
LINE
  8
1
 62
3
 10
329.749843605785
 20
29.42424242418201
 30
0
 11
335.4346845284148
 21
52.62693272083902
 31
0
  0
LINE
  8
1
 62
3
 10
333.937997760988
 20
29.42424242418201
 30
0
 11
329.749843605785
 21
29.42424242418201
 31
0
  0
LINE
  8
1
 62
3
 10
335.5639588497751
 20
36.06060606060805
 30
0
 11
333.937997760988
 21
29.42424242418201
 31
0
  0
LINE
  8
1
 62
3
 10
341.8461900825632
 20
36.06060606060805
 30
0
 11
335.5639588497751
 21
36.06060606060805
 31
0
  0
LINE
  8
1
 62
3
 10
339.1362549345889
 20
25
 30
0
 11
341.8461900825632
 21
36.06060606060805
 31
0
  0
LINE
  8
1
 62
3
 10
322.3836383138354
 20
25
 30
0
 11
339.1362549345889
 21
25
 31
0
  0
LINE
  8
1
 62
3
 10
330.2364273548284
 20
57.05117514507901
 30
0
 11
322.3836383138354
 21
25
 31
0
  0
LINE
  8
1
 62
3
 10
346.9890439755487
 20
57.05117514507901
 30
0
 11
330.2364273548284
 21
57.05117514507901
 31
0
  0
LINE
  8
1
 62
3
 10
344.2791088276189
 20
45.99056908441298
 30
0
 11
346.9890439755487
 21
57.05117514507901
 31
0
  0
LINE
  8
1
 62
3
 10
324.9642991404527
 20
52.62693272083902
 30
0
 11
326.0482731996111
 21
57.05117514507901
 31
0
  0
LINE
  8
1
 62
3
 10
314.4939137524726
 20
52.62693272083902
 30
0
 11
324.9642991404527
 21
52.62693272083902
 31
0
  0
LINE
  8
1
 62
3
 10
312.0609950074597
 20
42.69696969695303
 30
0
 11
314.4939137524726
 21
52.62693272083902
 31
0
  0
LINE
  8
1
 62
3
 10
322.5313803955236
 20
42.69696969695303
 30
0
 11
312.0609950074597
 21
42.69696969695303
 31
0
  0
LINE
  8
1
 62
3
 10
318.1954841585995
 20
25
 30
0
 11
322.5313803955236
 21
42.69696969695303
 31
0
  0
LINE
  8
1
 62
3
 10
301.4428675377769
 20
25
 30
0
 11
318.1954841585995
 21
25
 31
0
  0
LINE
  8
1
 62
3
 10
302.5268415970842
 20
29.42424242418201
 30
0
 11
301.4428675377769
 21
25
 31
0
  0
LINE
  8
1
 62
3
 10
312.9972269849952
 20
29.42424242418201
 30
0
 11
302.5268415970842
 21
29.42424242418201
 31
0
  0
LINE
  8
1
 62
3
 10
315.1651751034136
 20
38.27272727279706
 30
0
 11
312.9972269849952
 21
29.42424242418201
 31
0
  0
LINE
  8
1
 62
3
 10
304.6947897154479
 20
38.27272727279706
 30
0
 11
315.1651751034136
 21
38.27272727279706
 31
0
  0
LINE
  8
1
 62
3
 10
309.2956565788394
 20
57.05117514507901
 30
0
 11
304.6947897154479
 21
38.27272727279706
 31
0
  0
LINE
  8
1
 62
3
 10
326.0482731996111
 20
57.05117514507901
 30
0
 11
309.2956565788394
 21
57.05117514507901
 31
0
  0
LINE
  8
1
 62
3
 10
305.1075024236765
 20
57.05117514507901
 30
0
 11
297.2547133826612
 21
25
 31
0
  0
LINE
  8
1
 62
3
 10
298.8252711908701
 20
57.05117514507901
 30
0
 11
305.1075024236765
 21
57.05117514507901
 31
0
  0
LINE
  8
1
 62
3
 10
297.2547133826612
 20
25
 30
0
 11
279.4550582230717
 21
25
 31
0
  0
LINE
  8
1
 62
3
 10
292.0564562090642
 20
29.42424242418201
 30
0
 11
298.8252711908701
 21
57.05117514507901
 31
0
  0
LINE
  8
1
 62
3
 10
286.8212635150795
 20
29.42424242418201
 30
0
 11
292.0564562090642
 21
29.42424242418201
 31
0
  0
LINE
  8
1
 62
3
 10
287.3078472640648
 20
57.05117514507901
 30
0
 11
293.5900784968745
 21
57.05117514507901
 31
0
  0
LINE
  8
1
 62
3
 10
279.4550582230717
 20
25
 30
0
 11
287.3078472640648
 21
57.05117514507901
 31
0
  0
LINE
  8
1
 62
3
 10
275.266904067945
 20
25
 30
0
 11
257.4672489082972
 21
25
 31
0
  0
LINE
  8
1
 62
3
 10
285.8296282568646
 20
68.11178120566206
 30
0
 11
275.266904067945
 21
25
 31
0
  0
LINE
  8
1
 62
3
 10
261.8563011795724
 20
68.11178120566206
 30
0
 11
285.8296282568646
 21
68.11178120566206
 31
0
  0
LINE
  8
1
 62
3
 10
260.5013336055873
 20
62.58147817540498
 30
0
 11
261.8563011795724
 21
68.11178120566206
 31
0
  0
LINE
  8
1
 62
3
 10
278.1924294501207
 20
62.58147817540498
 30
0
 11
260.5013336055873
 21
62.58147817540498
 31
0
  0
LINE
  8
1
 62
3
 10
270.0686468942387
 20
29.42424242418201
 30
0
 11
278.1924294501207
 21
62.58147817540498
 31
0
  0
LINE
  8
1
 62
3
 10
264.8334542003597
 20
29.42424242418201
 30
0
 11
270.0686468942387
 21
29.42424242418201
 31
0
  0
LINE
  8
1
 62
3
 10
271.6022691820492
 20
57.05117514507901
 30
0
 11
264.8334542003597
 21
29.42424242418201
 31
0
  0
LINE
  8
1
 62
3
 10
265.3200379493521
 20
57.05117514507901
 30
0
 11
271.6022691820492
 21
57.05117514507901
 31
0
  0
LINE
  8
1
 62
3
 10
257.4672489082972
 20
25
 30
0
 11
265.3200379493521
 21
57.05117514507901
 31
0
  0
LINE
  8
1
 62
3
 10
392.5869301418119
 20
31.19393939390989
 30
0
 11
401.6320906479028
 21
68.11178120566206
 31
0
  0
LINE
  8
1
 62
3
 10
401.6320906479028
 20
68.11178120566206
 30
0
 11
395.7686748306352
 21
68.11178120566206
 31
0
  0
LINE
  8
1
 62
3
 10
395.7686748306352
 20
68.11178120566206
 30
0
 11
385.205950641694
 21
25
 31
0
  0
LINE
  8
1
 62
3
 10
403.110309655264
 20
57.05117514507901
 30
0
 11
397.4254687325762
 21
33.84848484847714
 31
0
  0
LINE
  8
1
 62
3
 10
397.4254687325762
 20
33.84848484847714
 30
0
 11
413.1310468144969
 21
33.84848484847714
 31
0
  0
LINE
  8
1
 62
3
 10
413.1310468144969
 20
33.84848484847714
 30
0
 11
418.8158877371051
 21
57.05117514507901
 31
0
  0
LINE
  8
1
 62
3
 10
418.8158877371051
 20
57.05117514507901
 30
0
 11
413.5806950431821
 21
57.05117514507901
 31
0
  0
LINE
  8
1
 62
3
 10
413.5806950431821
 20
57.05117514507901
 30
0
 11
408.979828179787
 21
38.27272727279706
 31
0
  0
LINE
  8
1
 62
3
 10
408.979828179787
 20
38.27272727279706
 30
0
 11
403.7446354858349
 21
38.27272727279706
 31
0
  0
LINE
  8
1
 62
3
 10
403.7446354858349
 20
38.27272727279706
 30
0
 11
408.3455023491862
 21
57.05117514507901
 31
0
  0
LINE
  8
1
 62
3
 10
408.3455023491862
 20
57.05117514507901
 30
0
 11
403.110309655264
 21
57.05117514507901
 31
0
  0
LINE
  8
1
 62
3
 10
425.3742264932458
 20
57.05117514507901
 30
0
 11
421.328780230231
 21
57.05117514507901
 31
0
  0
LINE
  8
1
 62
3
 10
421.328780230231
 20
57.05117514507901
 30
0
 11
425.451075752428
 21
46.41530121866094
 31
0
  0
LINE
  8
1
 62
3
 10
425.451075752428
 20
46.41530121866094
 30
0
 11
415.6439393076379
 21
33.84848484847714
 31
0
  0
LINE
  8
1
 62
3
 10
415.6439393076379
 20
33.84848484847714
 30
0
 11
419.6893855706352
 21
33.84848484847714
 31
0
  0
LINE
  8
1
 62
3
 10
419.6893855706352
 20
33.84848484847714
 30
0
 11
426.7935181507369
 21
42.95168537050199
 31
0
  0
LINE
  8
1
 62
3
 10
426.7935181507369
 20
42.95168537050199
 30
0
 11
430.3217738454209
 21
33.84848484847714
 31
0
  0
LINE
  8
1
 62
3
 10
430.3217738454209
 20
33.84848484847714
 30
0
 11
434.3672201084689
 21
33.84848484847714
 31
0
  0
LINE
  8
1
 62
3
 10
434.3672201084689
 20
33.84848484847714
 30
0
 11
429.4965220154651
 21
46.41530121860296
 31
0
  0
LINE
  8
1
 62
3
 10
429.4965220154651
 20
46.41530121860296
 30
0
 11
437.7967520605471
 21
57.05117514507901
 31
0
  0
LINE
  8
1
 62
3
 10
437.7967520605471
 20
57.05117514507901
 30
0
 11
433.7513057974892
 21
57.05117514507901
 31
0
  0
LINE
  8
1
 62
3
 10
433.7513057974892
 20
57.05117514507901
 30
0
 11
428.154079617203
 21
49.87891706682399
 31
0
  0
LINE
  8
1
 62
3
 10
428.154079617203
 20
49.87891706682399
 30
0
 11
425.3742264932458
 21
57.05117514507901
 31
0
  0
LINE
  8
1
 62
3
 10
435.3960796939849
 20
31.19393939390989
 30
0
 11
437.7967520605039
 21
25
 31
0
  0
LINE
  8
1
 62
3
 10
435.3960796939849
 20
31.19393939390989
 30
0
 11
392.5869301418119
 21
31.19393939390989
 31
0
  0
LINE
  8
1
 62
3
 10
437.7967520605039
 20
25
 30
0
 11
385.205950641694
 21
25
 31
0
  0
LINE
  8
1
 62
3
 10
294.2059365672633
 20
68.11178120566206
 30
0
 11
297.4578587447451
 21
81.38450847831996
 31
0
  0
LINE
  8
1
 62
3
 10
297.4578587447451
 20
81.38450847831996
 30
0
 11
310.022321210463
 21
81.38450847831996
 31
0
  0
LINE
  8
1
 62
3
 10
310.022321210463
 20
81.38450847831996
 30
0
 11
306.7703990327884
 21
68.11178120566206
 31
0
  0
LINE
  8
1
 62
3
 10
306.7703990327884
 20
68.11178120566206
 30
0
 11
294.2059365672633
 21
68.11178120566206
 31
0
  0
LINE
  8
1
 62
3
 10
305.2183089847841
 20
70.32390241779308
 30
0
 11
296.8420006744293
 21
70.32390241779308
 31
0
  0
LINE
  8
1
 62
3
 10
307.3862571032606
 20
79.17238726626897
 30
0
 11
305.2183089847841
 21
70.32390241779308
 31
0
  0
LINE
  8
1
 62
3
 10
299.0099487927711
 20
79.17238726626897
 30
0
 11
307.3862571032606
 21
79.17238726626897
 31
0
  0
LINE
  8
1
 62
3
 10
296.8420006744293
 20
70.32390241779308
 30
0
 11
299.0099487927711
 21
79.17238726626897
 31
0
  0
LINE
  8
1
 62
3
 10
312.5352137034553
 20
81.38450847831996
 30
0
 11
309.2832915259189
 21
68.11178120566206
 31
0
  0
LINE
  8
1
 62
3
 10
312.5352137034553
 20
81.38450847831996
 30
0
 11
325.099676169035
 21
81.38450847831996
 31
0
  0
LINE
  8
1
 62
3
 10
325.099676169035
 20
81.38450847831996
 30
0
 11
323.2321520591814
 21
73.76220485833187
 31
0
  0
LINE
  8
1
 62
3
 10
321.8477539915024
 20
68.11178120566206
 30
0
 11
319.7536769138625
 21
68.11178120566206
 31
0
  0
LINE
  8
1
 62
3
 10
319.7536769138625
 20
68.11178120566206
 30
0
 11
320.8376509732353
 21
72.53602362984407
 31
0
  0
LINE
  8
1
 62
3
 10
320.8376509732353
 20
72.53602362984407
 30
0
 11
312.4613426627059
 21
72.53602362984407
 31
0
  0
LINE
  8
1
 62
3
 10
313.0033296922977
 20
74.74814484203307
 30
0
 11
321.3796380026781
 21
74.74814484203307
 31
0
  0
LINE
  8
1
 62
3
 10
321.3796380026781
 20
74.74814484203307
 30
0
 11
322.4636120619999
 21
79.17238726626897
 31
0
  0
LINE
  8
1
 62
3
 10
322.4636120619999
 20
79.17238726626897
 30
0
 11
314.0873037514813
 21
79.17238726626897
 31
0
  0
LINE
  8
1
 62
3
 10
314.0873037514813
 20
79.17238726626897
 30
0
 11
313.0033296922977
 21
74.74814484203307
 31
0
  0
LINE
  8
1
 62
3
 10
322.7954723776148
 20
71.97989581078195
 30
0
 11
321.8477539915024
 21
68.11178120566206
 31
0
  0
LINE
  8
1
 62
3
 10
309.2832915259189
 20
68.11178120566206
 30
0
 11
311.3773686035951
 21
68.11178120566206
 31
0
  0
LINE
  8
1
 62
3
 10
311.3773686035951
 20
68.11178120566206
 30
0
 11
312.4613426627059
 21
72.53602362984407
 31
0
  0
LINE
  8
1
 62
3
 10
329.7066457397618
 20
81.38450847831996
 30
0
 11
327.6125686621983
 21
81.38450847831996
 31
0
  0
LINE
  8
1
 62
3
 10
327.6125686621983
 20
81.38450847831996
 30
0
 11
324.3606464846329
 21
68.11178120566206
 31
0
  0
LINE
  8
1
 62
3
 10
324.3606464846329
 20
68.11178120566206
 30
0
 11
326.4547235623526
 21
68.11178120566206
 31
0
  0
LINE
  8
1
 62
3
 10
326.4547235623526
 20
68.11178120566206
 30
0
 11
329.7066457397618
 21
81.38450847831996
 31
0
  0
LINE
  8
1
 62
3
 10
328.9676160553373
 20
68.11178120566206
 30
0
 11
332.2195382328812
 21
81.38450847831996
 31
0
  0
LINE
  8
1
 62
3
 10
332.2195382328812
 20
81.38450847831996
 30
0
 11
344.784000698472
 21
81.38450847831996
 31
0
  0
LINE
  8
1
 62
3
 10
344.784000698472
 20
81.38450847831996
 30
0
 11
343.645827936345
 21
76.73905393289101
 31
0
  0
LINE
  8
1
 62
3
 10
341.5320785209498
 20
68.11178120566206
 30
0
 11
328.9676160553373
 21
68.11178120566206
 31
0
  0
LINE
  8
1
 62
3
 10
339.9799884729018
 20
70.32390241779308
 30
0
 11
331.6036801625726
 21
70.32390241779308
 31
0
  0
LINE
  8
1
 62
3
 10
342.147936591197
 20
79.17238726626897
 30
0
 11
341.5517508588189
 21
76.73905393289101
 31
0
  0
LINE
  8
1
 62
3
 10
333.7716282809
 20
79.17238726626897
 30
0
 11
342.147936591197
 21
79.17238726626897
 31
0
  0
LINE
  8
1
 62
3
 10
331.6036801625726
 20
70.32390241779308
 30
0
 11
333.7716282809
 21
79.17238726626897
 31
0
  0
LINE
  8
1
 62
3
 10
343.1580396097219
 20
74.74814484203307
 30
0
 11
336.8758083769159
 21
74.74814484203307
 31
0
  0
LINE
  8
1
 62
3
 10
343.1580396097219
 20
74.74814484203307
 30
0
 11
341.5320785209498
 21
68.11178120566206
 31
0
  0
LINE
  8
1
 62
3
 10
336.8758083769159
 20
74.74814484203307
 30
0
 11
336.3338213472688
 21
72.53602362984407
 31
0
  0
LINE
  8
1
 62
3
 10
336.3338213472688
 20
72.53602362984407
 30
0
 11
340.5219755026691
 21
72.53602362984407
 31
0
  0
LINE
  8
1
 62
3
 10
340.5219755026691
 20
72.53602362984407
 30
0
 11
339.9799884729018
 21
70.32390241779308
 31
0
  0
LINE
  8
1
 62
3
 10
341.5517508588189
 20
76.73905393289101
 30
0
 11
343.645827936345
 21
76.73905393289101
 31
0
  0
LINE
  8
1
 62
3
 10
344.0449710140658
 20
68.11178120566206
 30
0
 11
346.139048091626
 21
68.11178120566206
 31
0
  0
LINE
  8
1
 62
3
 10
346.139048091626
 20
68.11178120566206
 30
0
 11
349.3909702691951
 21
81.38450847831996
 31
0
  0
LINE
  8
1
 62
3
 10
347.2968931916308
 20
81.38450847831996
 30
0
 11
344.0449710140658
 21
68.11178120566206
 31
0
  0
LINE
  8
1
 62
3
 10
349.3909702691951
 20
81.38450847831996
 30
0
 11
347.2968931916308
 21
81.38450847831996
 31
0
  0
LINE
  8
1
 62
3
 10
348.6519405847961
 20
68.11178120566206
 30
0
 11
351.9038627623107
 21
81.38450847831996
 31
0
  0
LINE
  8
1
 62
3
 10
351.9038627623107
 20
81.38450847831996
 30
0
 11
355.0449783786519
 21
81.38450847831996
 31
0
  0
LINE
  8
1
 62
3
 10
355.0449783786519
 20
81.38450847831996
 30
0
 11
359.5288162449268
 21
69.770872114746
 31
0
  0
LINE
  8
1
 62
3
 10
359.5288162449268
 20
69.770872114746
 30
0
 11
362.3742481502799
 21
81.38450847831996
 31
0
  0
LINE
  8
1
 62
3
 10
362.3742481502799
 20
81.38450847831996
 30
0
 11
364.4683252278941
 21
81.38450847831996
 31
0
  0
LINE
  8
1
 62
3
 10
364.4683252278941
 20
81.38450847831996
 30
0
 11
361.2164030502738
 21
68.11178120566206
 31
0
  0
LINE
  8
1
 62
3
 10
361.2164030502738
 20
68.11178120566206
 30
0
 11
357.9737245615049
 21
68.11178120566206
 31
0
  0
LINE
  8
1
 62
3
 10
357.9737245615049
 20
68.11178120566206
 30
0
 11
354.1925682257951
 21
77.90539462953507
 31
0
  0
LINE
  8
1
 62
3
 10
354.1925682257951
 20
77.90539462953507
 30
0
 11
353.5520199592851
 21
79.56448553859786
 31
0
  0
LINE
  8
1
 62
3
 10
353.5520199592851
 20
79.56448553859786
 30
0
 11
350.7460176623558
 21
68.11178120566206
 31
0
  0
LINE
  8
1
 62
3
 10
350.7460176623558
 20
68.11178120566206
 30
0
 11
348.6519405847961
 21
68.11178120566206
 31
0
  0
LINE
  8
1
 62
3
 10
363.7292955433899
 20
68.11178120566206
 30
0
 11
371.2407258222871
 21
81.38450847831996
 31
0
  0
LINE
  8
1
 62
3
 10
371.2407258222871
 20
81.38450847831996
 30
0
 11
375.286172085262
 21
81.38450847831996
 31
0
  0
LINE
  8
1
 62
3
 10
375.286172085262
 20
81.38450847831996
 30
0
 11
376.2937580090239
 21
68.11178120566206
 31
0
  0
LINE
  8
1
 62
3
 10
376.2937580090239
 20
68.11178120566206
 30
0
 11
374.2640758459551
 21
68.11178120566206
 31
0
  0
LINE
  8
1
 62
3
 10
374.2640758459551
 20
68.11178120566206
 30
0
 11
374.0961448586879
 21
70.32390241779308
 31
0
  0
LINE
  8
1
 62
3
 10
374.0961448586879
 20
70.32390241779308
 30
0
 11
367.3599975783242
 21
70.32390241779308
 31
0
  0
LINE
  8
1
 62
3
 10
367.3599975783242
 20
70.32390241779308
 30
0
 11
366.1080925319608
 21
68.11178120566206
 31
0
  0
LINE
  8
1
 62
3
 10
366.1080925319608
 20
68.11178120566206
 30
0
 11
363.7292955433899
 21
68.11178120566206
 31
0
  0
LINE
  8
1
 62
3
 10
368.611902624855
 20
72.53602362984407
 30
0
 11
373.928213871366
 21
72.53602362984407
 31
0
  0
LINE
  8
1
 62
3
 10
373.928213871366
 20
72.53602362984407
 30
0
 11
373.4244209095111
 21
79.17238726626897
 31
0
  0
LINE
  8
1
 62
3
 10
373.4244209095111
 20
79.17238726626897
 30
0
 11
372.3676177642209
 21
79.17238726626897
 31
0
  0
LINE
  8
1
 62
3
 10
368.611902624855
 20
72.53602362984407
 30
0
 11
372.3676177642209
 21
79.17238726626897
 31
0
  0
LINE
  8
1
 62
3
 10
382.0585726797132
 20
81.38450847831996
 30
0
 11
378.8066505021442
 21
68.11178120566206
 31
0
  0
LINE
  8
1
 62
3
 10
378.8066505021442
 20
68.11178120566206
 30
0
 11
391.371112967723
 21
68.11178120566206
 31
0
  0
LINE
  8
1
 62
3
 10
391.371112967723
 20
68.11178120566206
 30
0
 11
391.9130999973842
 21
70.32390241779308
 31
0
  0
LINE
  8
1
 62
3
 10
391.9130999973842
 20
70.32390241779308
 30
0
 11
381.442714609364
 21
70.32390241779308
 31
0
  0
LINE
  8
1
 62
3
 10
381.442714609364
 20
70.32390241779308
 30
0
 11
384.152649757327
 21
81.38450847831996
 31
0
  0
LINE
  8
1
 62
3
 10
384.152649757327
 20
81.38450847831996
 30
0
 11
382.0585726797132
 21
81.38450847831996
 31
0
  0
LINE
  8
1
 62
3
 10
428.6738850439962
 20
75.20011121384187
 30
0
 11
428.6738850439962
 21
72.45105578828202
 31
0
  0
LINE
  8
1
 62
3
 10
427.8014373448809
 20
72.45105578828202
 30
0
 11
427.8014373448809
 21
79.30952396345606
 31
0
  0
LINE
  8
1
 62
3
 10
427.8014373448809
 20
79.30952396345606
 30
0
 11
430.2433572041209
 21
79.30952396345606
 31
0
  0
LINE
  8
1
 62
3
 10
430.2433572041209
 20
79.30952396345606
 30
0
 11
430.5397137864728
 21
79.30952396345606
 31
0
  0
LINE
  8
1
 62
3
 10
432.3733483010391
 20
74.33068955462591
 30
0
 11
432.3733483010391
 21
72.45105578828202
 31
0
  0
LINE
  8
1
 62
3
 10
432.3733483010391
 20
72.45105578828202
 30
0
 11
431.4121614855338
 21
72.45105578828202
 31
0
  0
LINE
  8
1
 62
3
 10
431.4121614855338
 20
72.45105578828202
 30
0
 11
431.4121614855338
 21
74.07291105590002
 31
0
  0
LINE
  8
1
 62
3
 10
430.398946745614
 20
75.20011121384187
 30
0
 11
428.6738850439962
 21
75.20011121384187
 31
0
  0
LINE
  8
1
 62
3
 10
428.6738850439962
 20
72.45105578828202
 30
0
 11
427.8014373448809
 21
72.45105578828202
 31
0
  0
LINE
  8
1
 62
3
 10
428.6738850439962
 20
76.05033454127602
 30
0
 11
430.6613682719379
 21
76.05033454127602
 31
0
  0
LINE
  8
1
 62
3
 10
430.5298580360819
 20
78.50599253127803
 30
0
 11
428.6738850439962
 21
78.50599253127803
 31
0
  0
LINE
  8
1
 62
3
 10
428.6738850439962
 20
78.50599253127803
 30
0
 11
428.6738850439962
 21
76.05033454127602
 31
0
  0
ARC
  8
1
 62
3
 10
430.4099429776131
 20
77.30391992138107
 30
0
 40
2.009798008861549
 50
304.0700115354197
 51
86.29788871826833
  0
ARC
  8
1
 62
3
 10
430.3316251515989
 20
77.26402593055104
 30
0
 40
1.257687287767198
 50
285.1995809529354
 51
80.9313952387932
  0
ARC
  8
1
 62
3
 10
430.2564425134029
 20
74.05303938982206
 30
0
 40
1.155889798231655
 50
0.9850581704851609
 51
82.91825463292366
  0
ARC
  8
1
 62
3
 10
430.9818356998932
 20
74.36223368222591
 30
0
 40
1.391870091328113
 50
358.7013873342733
 51
66.54486649405627
  0
CIRCLE
  8
1
 62
3
 10
430.203124146234
 20
75.87878787875502
 30
0
 40
5.972862778753957
  0
CIRCLE
  8
1
 62
3
 10
430.203124146234
 20
75.87878787875502
 30
0
 40
5.530127989695984
  0
ENDBLK
  8
0
  0
BLOCK
  8
0
  2
WANNENF_SSE
 70
0
 10
-50
 20
0
 30
0
  0
LINE
  8
1
 62
2
 10
966
 20
85
 30
0
 11
966
 21
135
 31
0
  0
LINE
  8
1
 62
2
 10
956
 20
85
 30
0
 11
956
 21
135
 31
0
  0
LINE
  8
1
 62
2
 10
971
 20
55
 30
0
 11
966
 21
85
 31
0
  0
LINE
  8
1
 62
2
 10
951
 20
55
 30
0
 11
956
 21
85
 31
0
  0
LINE
  8
1
 62
2
 10
951
 20
25
 30
0
 11
951
 21
55
 31
0
  0
LINE
  8
1
 62
2
 10
971
 20
25
 30
0
 11
971
 21
55
 31
0
  0
LINE
  8
1
 62
2
 10
976
 20
0
 30
0
 11
976
 21
25
 31
0
  0
LINE
  8
1
 62
2
 10
946
 20
0
 30
0
 11
946
 21
25
 31
0
  0
LINE
  8
1
 62
2
 10
956
 20
85
 30
0
 11
966
 21
85
 31
0
  0
LINE
  8
1
 62
2
 10
951
 20
55
 30
0
 11
971
 21
55
 31
0
  0
LINE
  8
1
 62
2
 10
946
 20
25
 30
0
 11
976
 21
25
 31
0
  0
LINE
  8
1
 62
2
 10
724
 20
85
 30
0
 11
724
 21
106.4822434038269
 31
0
  0
LINE
  8
1
 62
2
 10
714
 20
85
 30
0
 11
714
 21
106.7274322997221
 31
0
  0
LINE
  8
1
 62
2
 10
729
 20
55
 30
0
 11
724
 21
85
 31
0
  0
LINE
  8
1
 62
2
 10
709
 20
55
 30
0
 11
714
 21
85
 31
0
  0
LINE
  8
1
 62
2
 10
709
 20
25
 30
0
 11
709
 21
55
 31
0
  0
LINE
  8
1
 62
2
 10
729
 20
25
 30
0
 11
729
 21
55
 31
0
  0
LINE
  8
1
 62
2
 10
734
 20
0
 30
0
 11
734
 21
25
 31
0
  0
LINE
  8
1
 62
2
 10
704
 20
0
 30
0
 11
704
 21
25
 31
0
  0
LINE
  8
1
 62
2
 10
714
 20
85
 30
0
 11
724
 21
85
 31
0
  0
LINE
  8
1
 62
2
 10
709
 20
55
 30
0
 11
729
 21
55
 31
0
  0
LINE
  8
1
 62
2
 10
704
 20
25
 30
0
 11
734
 21
25
 31
0
  0
LINE
  8
1
 62
2
 10
209
 20
85
 30
0
 11
209
 21
119.097811834288
 31
0
  0
LINE
  8
1
 62
2
 10
199
 20
85
 30
0
 11
199
 21
119.3477594388351
 31
0
  0
LINE
  8
1
 62
2
 10
214
 20
55
 30
0
 11
209
 21
85
 31
0
  0
LINE
  8
1
 62
2
 10
194
 20
55
 30
0
 11
199
 21
85
 31
0
  0
LINE
  8
1
 62
2
 10
194
 20
25
 30
0
 11
194
 21
55
 31
0
  0
LINE
  8
1
 62
2
 10
214
 20
25
 30
0
 11
214
 21
55
 31
0
  0
LINE
  8
1
 62
2
 10
219
 20
0
 30
0
 11
219
 21
25
 31
0
  0
LINE
  8
1
 62
2
 10
189
 20
0
 30
0
 11
189
 21
25
 31
0
  0
LINE
  8
1
 62
2
 10
199
 20
85
 30
0
 11
209
 21
85
 31
0
  0
LINE
  8
1
 62
2
 10
194
 20
55
 30
0
 11
214
 21
55
 31
0
  0
LINE
  8
1
 62
2
 10
189
 20
25
 30
0
 11
219
 21
25
 31
0
  0
ENDBLK
  8
0
  0
BLOCK
  8
0
  2
WANNE_ANCONA_TREND_645
 70
0
 10
0
 20
230
 30
0
  0
LINE
  8
1
 62
7
 10
778.781420999994
 20
120
 30
0
 11
922.0486335162691
 21
120
 31
0
  0
LINE
  8
1
 62
7
 10
940.000000579284
 20
168.0793576707099
 30
0
 11
995.0000000000121
 21
170
 31
0
  0
LINE
  8
1
 62
7
 10
940.000000579284
 20
168.0793576707099
 30
0
 11
936.9915539609719
 21
133.6926635539071
 31
0
  0
LINE
  8
1
 62
7
 10
750.4380719999999
 20
105.8346059999999
 30
0
 11
765.012129050388
 21
120.4086630503889
 31
0
  0
LINE
  8
1
 62
7
 10
177.1175700000003
 20
119.8824300000001
 30
0
 11
161.6519555567966
 21
135.348044443203
 31
0
  0
LINE
  8
1
 62
7
 10
55.57906894129974
 20
168.2337400020499
 30
0
 11
4.99999999997948
 21
170
 31
0
  0
LINE
  8
1
 62
7
 10
60.38554496536062
 20
163.672564395931
 30
0
 11
61.44368788430529
 21
151.577930322391
 31
0
  0
LINE
  8
1
 62
7
 10
750.4380719999999
 20
105.8346059999999
 30
0
 11
177.1175700000003
 21
119.8824300000001
 31
0
  0
LINE
  8
1
 62
7
 10
75.94161473676559
 20
137.891868007812
 30
0
 11
778.781420999994
 21
120
 31
0
  0
LINE
  8
1
 62
7
 10
1000
 20
135
 30
0
 11
937.105931106297
 21
135
 31
0
  0
LINE
  8
1
 62
7
 10
0
 20
135
 30
0
 11
162
 21
135
 31
0
  0
LINE
  8
1
 62
7
 10
1000
 20
135
 30
0
 11
1000
 21
170
 31
0
  0
LINE
  8
1
 62
7
 10
0
 20
170
 30
0
 11
1000
 21
170
 31
0
  0
LINE
  8
1
 62
7
 10
0
 20
135
 30
0
 11
0
 21
170
 31
0
  0
LINE
  8
1
 62
3
  6
DASHDOT
 10
850
 20
145
 30
0
 11
850
 21
75
 31
0
  0
LINE
  8
1
 62
7
 10
804.999999999998
 20
100
 30
0
 11
781.1649299999961
 21
120
 31
0
  0
LINE
  8
1
 62
7
 10
804.999999999998
 20
100
 30
0
 11
894.999999999998
 21
100
 31
0
  0
LINE
  8
1
 62
7
 10
894.999999999998
 20
100
 30
0
 11
918.8350699999969
 21
120
 31
0
  0
ARC
  8
1
 62
7
 10
922.0486335162691
 20
135
 30
0
 40
15
 50
270
 51
354.9999988310033
  0
ARC
  8
1
 62
7
 10
76.38660840416651
 20
152.8852659094209
 30
0
 40
15.00000000000014
 50
184.9999978750833
 51
268.2999999765967
  0
ARC
  8
1
 62
7
 10
55.40457145874007
 20
163.2367858669211
 30
0
 40
5.000000000000185
 50
4.999997875082372
 51
88.00000001092541
  0
INSERT
  8
0
  2
WANNENF_SSE
 10
-50
 20
0
 30
0
  0
ENDBLK
  8
0
  0
ENDSEC
  0
SECTION
  2
ENTITIES
  0
TEXT
  8
1
 62
2
 10
49.99999999999994
 20
195
 30
0
 40
35
  1
ANCONA Trend 645
 41
0.5993999999999999
  0
TEXT
  8
1
 62
3
 10
766.0840000000001
 20
30
 30
0
 40
35
  1
Ö 90
 41
0.5993999999999999
 72
2
 73
3
 11
850
 21
65
 31
0
  0
INSERT
  8
0
  2
DLX
 10
257.4672489082972
 20
25
 30
0
  0
INSERT
  8
0
  2
WANNE_ANCONA_TREND_645
 10
0
 20
230
 30
0
  0
ENDSEC
  0
EOF
