  0
SECTION
  2
HEADER
  9
$ACADVER
  1
AC1014
  9
$ACADMAINTVER
 70
           0
  9
$DWGCODEPAGE
  3
ANSI_1252
  9
$INSBASE
 10
0.0
 20
0.0
 30
0.0
  9
$EXTMIN
 10
1.000000000000E+20
 20
1.000000000000E+20
 30
1.000000000000E+20
  9
$EXTMAX
 10
-1.000000000000E+20
 20
-1.000000000000E+20
 30
-1.000000000000E+20
  9
$LIMMIN
 10
0.0
 20
0.0
  9
$LIMMAX
 10
0.0
 20
0.0
  9
$ORTHOMODE
 70
           0
  9
$REGENMODE
 70
           1
  9
$FILLMODE
 70
           1
  9
$QTEXTMODE
 70
           0
  9
$MIRRTEXT
 70
           1
  9
$DRAGMODE
 70
           2
  9
$LTSCALE
 40
1.0
  9
$OSMODE
 70
           0
  9
$ATTMODE
 70
           1
  9
$TEXTSIZE
 40
0.2
  9
$TRACEWID
 40
0.05
  9
$TEXTSTYLE
  7
STANDARD
  9
$CLAYER
  8
0
  9
$CELTYPE
  6
CONTINUOUS
  9
$CECOLOR
 62
         256
  9
$CELTSCALE
 40
1.0
  9
$DELOBJ
 70
           1
  9
$DISPSILH
 70
           0
  9
$DIMSCALE
 40
1.0
  9
$DIMASZ
 40
0.18
  9
$DIMEXO
 40
0.0625
  9
$DIMDLI
 40
0.38
  9
$DIMRND
 40
0.0
  9
$DIMDLE
 40
0.0
  9
$DIMEXE
 40
0.18
  9
$DIMTP
 40
0.0
  9
$DIMTM
 40
0.0
  9
$DIMTXT
 40
0.18
  9
$DIMCEN
 40
0.09
  9
$DIMTSZ
 40
0.0
  9
$DIMTOL
 70
           0
  9
$DIMLIM
 70
           0
  9
$DIMTIH
 70
           1
  9
$DIMTOH
 70
           1
  9
$DIMSE1
 70
           0
  9
$DIMSE2
 70
           0
  9
$DIMTAD
 70
           0
  9
$DIMZIN
 70
           0
  9
$DIMBLK
  1

  9
$DIMASO
 70
           1
  9
$DIMSHO
 70
           1
  9
$DIMPOST
  1

  9
$DIMAPOST
  1

  9
$DIMALT
 70
           0
  9
$DIMALTD
 70
           2
  9
$DIMALTF
 40
25.4
  9
$DIMLFAC
 40
1.0
  9
$DIMTOFL
 70
           0
  9
$DIMTVP
 40
0.0
  9
$DIMTIX
 70
           0
  9
$DIMSOXD
 70
           0
  9
$DIMSAH
 70
           0
  9
$DIMBLK1
  1

  9
$DIMBLK2
  1

  9
$DIMSTYLE
  2
STANDARD
  9
$DIMCLRD
 70
           0
  9
$DIMCLRE
 70
           0
  9
$DIMCLRT
 70
           0
  9
$DIMTFAC
 40
1.0
  9
$DIMGAP
 40
0.09
  9
$DIMJUST
 70
           0
  9
$DIMSD1
 70
           0
  9
$DIMSD2
 70
           0
  9
$DIMTOLJ
 70
           1
  9
$DIMTZIN
 70
           0
  9
$DIMALTZ
 70
           0
  9
$DIMALTTZ
 70
           0
  9
$DIMFIT
 70
           3
  9
$DIMUPT
 70
           0
  9
$DIMUNIT
 70
           2
  9
$DIMDEC
 70
           4
  9
$DIMTDEC
 70
           4
  9
$DIMALTU
 70
           2
  9
$DIMALTTD
 70
           2
  9
$DIMTXSTY
  7
STANDARD
  9
$DIMAUNIT
 70
           0
  9
$LUNITS
 70
           2
  9
$LUPREC
 70
           4
  9
$SKETCHINC
 40
0.1
  9
$FILLETRAD
 40
0.0
  9
$AUNITS
 70
           0
  9
$AUPREC
 70
           0
  9
$MENU
  1
acad
  9
$ELEVATION
 40
0.0
  9
$PELEVATION
 40
0.0
  9
$THICKNESS
 40
0.0
  9
$LIMCHECK
 70
           0
  9
$BLIPMODE
 70
           1
  9
$CHAMFERA
 40
0.0
  9
$CHAMFERB
 40
0.0
  9
$CHAMFERC
 40
0.0
  9
$CHAMFERD
 40
0.0
  9
$SKPOLY
 70
           0
  9
$TDCREATE
 40
0.000000000
  9
$TDUPDATE
 40
0.000000000
  9
$TDINDWG
 40
0.0000000000
  9
$TDUSRTIMER
 40
0.0000000000
  9
$USRTIMER
 70
           1
  9
$ANGBASE
 50
0.0
  9
$ANGDIR
 70
           0
  9
$PDMODE
 70
           0
  9
$PDSIZE
 40
0.0
  9
$PLINEWID
 40
0.0
  9
$COORDS
 70
           0
  9
$SPLFRAME
 70
           0
  9
$SPLINETYPE
 70
           6
  9
$SPLINESEGS
 70
           8
  9
$ATTDIA
 70
           0
  9
$ATTREQ
 70
           1
  9
$HANDLING
 70
           1
  9
$HANDSEED
  5
FC
  9
$SURFTAB1
 70
           6
  9
$SURFTAB2
 70
           6
  9
$SURFTYPE
 70
           6
  9
$SURFU
 70
           6
  9
$SURFV
 70
           6
  9
$UCSNAME
  2

  9
$UCSORG
 10
0.0
 20
0.0
 30
0.0
  9
$UCSXDIR
 10
1.0
 20
0.0
 30
0.0
  9
$UCSYDIR
 10
0.0
 20
1.0
 30
0.0
  9
$PUCSNAME
  2

  9
$PUCSORG
 10
0.0
 20
0.0
 30
0.0
  9
$PUCSXDIR
 10
1.0
 20
0.0
 30
0.0
  9
$PUCSYDIR
 10
0.0
 20
1.0
 30
0.0
  9
$USERI1
 70
           0
  9
$USERI2
 70
           0
  9
$USERI3
 70
           0
  9
$USERI4
 70
           0
  9
$USERI5
 70
           0
  9
$USERR1
 40
0.0
  9
$USERR2
 40
0.0
  9
$USERR3
 40
0.0
  9
$USERR4
 40
0.0
  9
$USERR5
 40
0.0
  9
$WORLDVIEW
 70
           1
  9
$SHADEDGE
 70
           3
  9
$SHADEDIF
 70
          70
  9
$TILEMODE
 70
           1
  9
$MAXACTVP
 70
          16
  9
$PINSBASE
 10
0.0
 20
0.0
 30
0.0
  9
$PLIMCHECK
 70
           0
  9
$PEXTMIN
 10
1.000000000000E+20
 20
1.000000000000E+20
 30
1.000000000000E+20
  9
$PEXTMAX
 10
-1.000000000000E+20
 20
-1.000000000000E+20
 30
-1.000000000000E+20
  9
$PLIMMIN
 10
0.0
 20
0.0
  9
$PLIMMAX
 10
12.0
 20
9.0
  9
$UNITMODE
 70
           0
  9
$VISRETAIN
 70
           0
  9
$PLINEGEN
 70
           1
  9
$PSLTSCALE
 70
           0
  9
$TREEDEPTH
 70
        3020
  9
$PICKSTYLE
 70
           1
  9
$CMLSTYLE
  2
STANDARD
  9
$CMLJUST
 70
           0
  9
$CMLSCALE
 40
1.0
  9
$PROXYGRAPHICS
 70
           0
  9
$MEASUREMENT
 70
           0
  0
ENDSEC
  0
SECTION
  2
CLASSES
  0
CLASS
  1
LWPOLYLINE
  2
AcDbPolyline
  3
"AutoCAD"
 90
        0
280
           0
281
           1
  0
CLASS
  1
IMAGE
  2
AcDbRasterImage
  3
ISM
 90
      127
280
           0
281
           1
  0
CLASS
  1
OLE2FRAME
  2
AcDbOle2Frame
  3
""
 90
        0
280
           0
281
           1
  0
CLASS
  1
HATCH
  2
AcDbHatch
  3
"ACAD_SEDONA"
 90
        0
280
           0
281
           1
  0
CLASS
  1
DICTIONARYVAR
  2
AcDbDictionaryVar
  3
"AutoCAD"
 90
        0
280
           0
281
           0
  0
CLASS
  1
RASTERVARIABLES
  2
AcDbRasterVariables
  3
ISM
 90
        0
280
           0
281
           0
  0
CLASS
  1
IMAGEDEF
  2
AcDbRasterImageDef
  3
ISM
 90
        0
280
           0
281
           0
  0
CLASS
  1
IMAGEDEF_REACTOR
  2
AcDbRasterImageDefReactor
  3
ISM
 90
        1
280
           0
281
           0
  0
CLASS
  1
IDBUFFER
  2
AcDbIdBuffer
  3
"Acad"
 90
        0
280
           0
281
           0
  0
CLASS
  1
SPATIAL_FILTER
  2
AcDbSpatialFilter
  3
"Acad"
 90
        0
280
           0
281
           0
  0
CLASS
  1
XRECORD
  2
AcDbXrecord
  3
"<Built In>"
 90
        0
280
           0
281
           0
  0
CLASS
  1
SORTENTSTABLE
  2
AcDbSortentsTable
  3
"AutoCAD"
 90
        0
280
           0
281
           0
  0
CLASS
  1
LAYER_INDEX
  2
AcDbLayerIndex
  3
"Acad"
 90
        0
280
           0
281
           0
  0
CLASS
  1
SPATIAL_INDEX
  2
AcDbSpatialIndex
  3
"Acad"
 90
        0
280
           0
281
           0
  0
CLASS
  1
OBJECT_PTR
  2
CAseDLPNTableRecord
  3
"ASE-LPNTableRecord"
 90
        1
280
           0
281
           0
  0
CLASS
  1
LAYOUT
  2
AcDbLayout
  3
"AutoCAD 2000"
 90
        1
280
           0
281
           0
  0
CLASS
  1
PLOTSETTINGS
  2
AcDbPlotSettings
  3
"AutoCAD 2000"
 90
        1
280
           0
281
           0
  0
CLASS
  1
ACDBDICTIONARYWDFLT
  2
AcDbDictionaryWithDefault
  3
"AutoCAD 2000"
 90
        1
280
           0
281
           0
  0
CLASS
  1
ACDBPLACEHOLDER
  2
AcDbPlaceHolder
  3
"AutoCAD 2000"
 90
        1
280
           0
281
           0
  0
CLASS
  1
VBA_PROJECT
  2
AcDbVbaProject
  3
"acadvba"
 90
        1
280
           0
281
           0
  0
CLASS
  1
WIPEOUT
  2
AcDbWipeout
  3
WipeOut|AutoCAD Express Tool|expresstools@autodesk.com
 90
      127
280
           0
281
           1
  0
CLASS
  1
WIPEOUTVARIABLES
  2
AcDbWipeoutVariables
  3
WipeOut|AutoCAD Express Tool|expresstools@autodesk.com
 90
        0
280
           0
281
           0
  0
CLASS
  1
RTEXT
  2
RText
  3
RText|AutoCAD Express Tool|expresstools@autodesk.com
 90
        0
280
           0
281
           1
  0
CLASS
  1
ARCALIGNEDTEXT
  2
AcDbArcAlignedText
  3
ATEXT|AutoCAD Express Tool|expresstools@autodesk.com
 90
        0
280
           0
281
           1
  0
ENDSEC
  0
SECTION
  2
TABLES
  0
TABLE
  2
VPORT
  5
7
100
AcDbSymbolTable
 70
           1
  0
VPORT
  5
15
100
AcDbSymbolTableRecord
100
AcDbViewportTableRecord
  2
*ACTIVE
 70
           0
 10
0.0
 20
0.0
 11
1.0
 21
1.0
 12
6.591288
 22
4.579184
 13
0.0
 23
0.0
 14
1.0
 24
1.0
 15
0.0
 25
0.0
 16
0.0
 26
0.0
 36
1.0
 17
0.0
 27
0.0
 37
0.0
 40
9.158369
 41
0.688564
 42
50.0
 43
0.0
 44
0.0
 50
0.0
 51
0.0
 71
           0
 72
         100
 73
           1
 74
           1
 75
           0
 76
           0
 77
           0
 78
           0
  0
ENDTAB
  0
TABLE
  2
LTYPE
  5
4
100
AcDbSymbolTable
 70
          10
  0
LTYPE
  5
11
100
AcDbSymbolTableRecord
100
AcDbLinetypeTableRecord
  2
BYBLOCK
 70
          64
  3

 72
          65
 73
           0
 40
0.0
  0
LTYPE
  5
12
100
AcDbSymbolTableRecord
100
AcDbLinetypeTableRecord
  2
BYLAYER
 70
          64
  3

 72
          65
 73
           0
 40
0.0
  0
LTYPE
  5
13
100
AcDbSymbolTableRecord
100
AcDbLinetypeTableRecord
  2
CONTINUOUS
 70
          64
  3
Solid line
 72
          65
 73
           0
 40
0.0
  0
LTYPE
  5
1D
100
AcDbSymbolTableRecord
100
AcDbLinetypeTableRecord
  2
DASHED
 70
          64
  3
Dashed
 72
          65
 73
           2
 40
15.0
 49
12.0
 74
           0
 49
-3.0
 74
           0
  0
LTYPE
  5
1E
100
AcDbSymbolTableRecord
100
AcDbLinetypeTableRecord
  2
DOTTED
 70
          64
  3
Dotted
 72
          65
 73
           2
 40
3.5
 49
0.5
 74
           0
 49
-3.0
 74
           0
  0
LTYPE
  5
1F
100
AcDbSymbolTableRecord
100
AcDbLinetypeTableRecord
  2
DOT_CENTER
 70
          64
  3
Dot_Center
 72
          65
 73
           4
 40
2.0
 49
1.25
 74
           0
 49
-0.25
 74
           0
 49
0.25
 74
           0
 49
-0.25
 74
           0
  0
LTYPE
  5
20
100
AcDbSymbolTableRecord
100
AcDbLinetypeTableRecord
  2
LONG_DASHED
 70
          64
  3
Long_Dashed
 72
          65
 73
           2
 40
2.0
 49
1.5
 74
           0
 49
-0.5
 74
           0
  0
LTYPE
  5
21
100
AcDbSymbolTableRecord
100
AcDbLinetypeTableRecord
  2
DASH_CENTER
 70
          64
  3
Dash_Center
 72
          65
 73
           4
 40
36.0
 49
24.0
 74
           0
 49
-3.0
 74
           0
 49
6.0
 74
           0
 49
-3.0
 74
           0
  0
LTYPE
  5
22
100
AcDbSymbolTableRecord
100
AcDbLinetypeTableRecord
  2
PHANTOM
 70
          64
  3
Phantom
 72
          65
 73
           6
 40
2.5
 49
1.25
 74
           0
 49
-0.25
 74
           0
 49
0.25
 74
           0
 49
-0.25
 74
           0
 49
0.25
 74
           0
 49
-0.25
 74
           0
  0
LTYPE
  5
23
100
AcDbSymbolTableRecord
100
AcDbLinetypeTableRecord
  2
CENTER_DASH_DASH
 70
          64
  3
Center_Dash_Dash
 72
          65
 73
           6
 40
22.0
 49
12.0
 74
           0
 49
-3.0
 74
           0
 49
0.5
 74
           0
 49
-3.0
 74
           0
 49
0.5
 74
           0
 49
-3.0
 74
           0
  0
ENDTAB
  0
TABLE
  2
LAYER
  5
2
100
AcDbSymbolTable
 70
           4
  0
LAYER
  5
14
100
AcDbSymbolTableRecord
100
AcDbLayerTableRecord
  2
0
 70
           0
 62
           7
  6
CONTINUOUS
  0
LAYER
  5
24
100
AcDbSymbolTableRecord
100
AcDbLayerTableRecord
  2
MITTELLINIEN
 70
           0
 62
           7
  6
CONTINUOUS
  0
LAYER
  5
25
100
AcDbSymbolTableRecord
100
AcDbLayerTableRecord
  2
1
 70
           0
 62
           7
  6
CONTINUOUS
  0
LAYER
  5
26
100
AcDbSymbolTableRecord
100
AcDbLayerTableRecord
  2
GEOMETRIE
 70
           0
 62
           7
  6
CONTINUOUS
  0
ENDTAB
  0
TABLE
  2
STYLE
  5
3
100
AcDbSymbolTable
 70
           2
  0
STYLE
  5
17
100
AcDbSymbolTableRecord
100
AcDbTextStyleTableRecord
  2
STANDARD
 70
           0
 40
0.0
 41
1.0
 50
0.0
 71
           0
 42
0.0
  3
txt
  4

  0
STYLE
  5
F8
100
AcDbSymbolTableRecord
100
AcDbTextStyleTableRecord
  2
CONVERTER_1
 70
           0
 40
0.0
 41
0.71262
 50
0.0
 71
           0
 42
0.0
  3
txt.shx
  4

  0
ENDTAB
  0
TABLE
  2
VIEW
  5
5
100
AcDbSymbolTable
 70
           0
  0
ENDTAB
  0
TABLE
  2
UCS
  5
6
100
AcDbSymbolTable
 70
           0
  0
ENDTAB
  0
TABLE
  2
APPID
  5
8
100
AcDbSymbolTable
 70
           1
  0
APPID
  5
16
100
AcDbSymbolTableRecord
100
AcDbRegAppTableRecord
  2
ACAD
 70
           0
  0
ENDTAB
  0
TABLE
  2
DIMSTYLE
  5
9
100
AcDbSymbolTable
 70
           1
  0
DIMSTYLE
105
18
100
AcDbSymbolTableRecord
100
AcDbDimStyleTableRecord
  2
STANDARD
 70
           0
  3

  4

  5

  6

  7

 40
1.0
 41
0.18
 42
0.0625
 43
0.38
 44
0.18
 45
0.0
 46
0.0
 47
0.0
 48
0.0
 71
           0
 72
           0
 73
           1
 74
           1
 75
           0
 76
           0
 77
           0
 78
           0
140
0.18
141
0.09
142
0.0
143
25.4
144
1.0
145
0.0
146
1.0
147
0.09
170
           0
171
           2
172
           0
173
           0
174
           0
175
           0
176
           0
177
           0
178
           0
270
           2
271
           4
272
           4
273
           2
274
           2
275
           0
280
           0
281
           0
282
           0
283
           1
284
           0
285
           0
286
           0
287
           0
288
           0
340
17
  0
ENDTAB
  0
TABLE
  2
BLOCK_RECORD
  5
1
100
AcDbSymbolTable
 70
           2
  0
BLOCK_RECORD
  5
A
100
AcDbSymbolTableRecord
100
AcDbBlockTableRecord
  2
*MODEL_SPACE
  0
BLOCK_RECORD
  5
B
100
AcDbSymbolTableRecord
100
AcDbBlockTableRecord
  2
*PAPER_SPACE
  0
BLOCK_RECORD
  5
27
100
AcDbSymbolTableRecord
100
AcDbBlockTableRecord
  2
DLX
  0
BLOCK_RECORD
  5
29
100
AcDbSymbolTableRecord
100
AcDbBlockTableRecord
  2
WANNE_ANCONA_TREND_647
  0
ENDTAB
  0
ENDSEC
  0
SECTION
  2
BLOCKS
  0
BLOCK
  5
D
100
AcDbEntity
  8
0
100
AcDbBlockBegin
  2
*MODEL_SPACE
 70
           0
 10
0.0
 20
0.0
 30
0.0
  3
*MODEL_SPACE
  1

  0
ENDBLK
  5
E
100
AcDbEntity
  8
0
100
AcDbBlockEnd
  0
BLOCK
  5
F
100
AcDbEntity
 67
           1
  8
0
100
AcDbBlockBegin
  2
*PAPER_SPACE
 70
           0
 10
0.0
 20
0.0
 30
0.0
  3
*PAPER_SPACE
  1

  0
ENDBLK
  5
10
100
AcDbEntity
 67
           1
  8
0
100
AcDbBlockEnd
  0
BLOCK
  5
28
100
AcDbEntity
  8
0
100
AcDbBlockBegin
  2
DLX
 70
           0
 10
0.0
 20
0.0
 30
0.0
  3
DLX
  1

  0
CIRCLE
  5
E2
100
AcDbEntity
  8
1
  6
CONTINUOUS
 62
           3
100
AcDbCircle
 10
322.735875237937
 20
250.878787878755
 40
5.530127989696
  0
CIRCLE
  5
E1
100
AcDbEntity
  8
1
  6
CONTINUOUS
 62
           3
100
AcDbCircle
 10
322.735875237937
 20
250.878787878755
 40
5.972862778754
  0
ARC
  5
E0
100
AcDbEntity
  8
1
  6
CONTINUOUS
 62
           3
100
AcDbCircle
 10
323.514586791596
 20
249.362233682226
 40
1.391870091328
100
AcDbArc
 50
-1.298612665735
 51
66.544866494048
  0
ARC
  5
DF
100
AcDbEntity
  8
1
  6
CONTINUOUS
 62
           3
100
AcDbCircle
 10
322.789193605106
 20
249.053039389822
 40
1.155889798232
100
AcDbArc
 50
0.985058170482
 51
82.918254632926
  0
ARC
  5
DE
100
AcDbEntity
  8
1
  6
CONTINUOUS
 62
           3
100
AcDbCircle
 10
322.864376243302
 20
252.264025930551
 40
1.257687287767
100
AcDbArc
 50
-74.800419047057
 51
80.93139523879
  0
ARC
  5
DD
100
AcDbEntity
  8
1
  6
CONTINUOUS
 62
           3
100
AcDbCircle
 10
322.942694069316
 20
252.303919921381
 40
2.009798008862
100
AcDbArc
 50
-55.92998846458
 51
86.297888718264
  0
LINE
  5
DC
100
AcDbEntity
  8
1
  6
CONTINUOUS
 62
           3
100
AcDbLine
 10
321.206636135699
 20
253.505992531278
 11
321.206636135699
 21
251.050334541276
  0
LINE
  5
DB
100
AcDbEntity
  8
1
  6
CONTINUOUS
 62
           3
100
AcDbLine
 10
323.062609127785
 20
253.505992531278
 11
321.206636135699
 21
253.505992531278
  0
LINE
  5
DA
100
AcDbEntity
  8
1
  6
CONTINUOUS
 62
           3
100
AcDbLine
 10
321.206636135699
 20
251.050334541276
 11
323.194119363641
 21
251.050334541276
  0
LINE
  5
D9
100
AcDbEntity
  8
1
  6
CONTINUOUS
 62
           3
100
AcDbLine
 10
321.206636135699
 20
247.451055788282
 11
320.334188436584
 21
247.451055788282
  0
LINE
  5
D8
100
AcDbEntity
  8
1
  6
CONTINUOUS
 62
           3
100
AcDbLine
 10
322.931697837317
 20
250.200111213842
 11
321.206636135699
 21
250.200111213842
  0
LINE
  5
D7
100
AcDbEntity
  8
1
  6
CONTINUOUS
 62
           3
100
AcDbLine
 10
323.944912577237
 20
247.451055788282
 11
323.944912577237
 21
249.0729110559
  0
LINE
  5
D6
100
AcDbEntity
  8
1
  6
CONTINUOUS
 62
           3
100
AcDbLine
 10
324.906099392742
 20
247.451055788282
 11
323.944912577237
 21
247.451055788282
  0
LINE
  5
D5
100
AcDbEntity
  8
1
  6
CONTINUOUS
 62
           3
100
AcDbLine
 10
324.906099392742
 20
249.330689554626
 11
324.906099392742
 21
247.451055788282
  0
LINE
  5
D4
100
AcDbEntity
  8
1
  6
CONTINUOUS
 62
           3
100
AcDbLine
 10
322.776108295824
 20
254.309523963456
 11
323.072464878176
 21
254.309523963456
  0
LINE
  5
D3
100
AcDbEntity
  8
1
  6
CONTINUOUS
 62
           3
100
AcDbLine
 10
320.334188436584
 20
254.309523963456
 11
322.776108295824
 21
254.309523963456
  0
LINE
  5
D2
100
AcDbEntity
  8
1
  6
CONTINUOUS
 62
           3
100
AcDbLine
 10
320.334188436584
 20
247.451055788282
 11
320.334188436584
 21
254.309523963456
  0
LINE
  5
D1
100
AcDbEntity
  8
1
  6
CONTINUOUS
 62
           3
100
AcDbLine
 10
321.206636135699
 20
250.200111213842
 11
321.206636135699
 21
247.451055788282
  0
LINE
  5
D0
100
AcDbEntity
  8
1
  6
CONTINUOUS
 62
           3
100
AcDbLine
 10
276.68540084903
 20
256.38450847832
 11
274.591323771416
 21
256.38450847832
  0
LINE
  5
CF
100
AcDbEntity
  8
1
  6
CONTINUOUS
 62
           3
100
AcDbLine
 10
273.975465701067
 20
245.323902417793
 11
276.68540084903
 21
256.38450847832
  0
LINE
  5
CE
100
AcDbEntity
  8
1
  6
CONTINUOUS
 62
           3
100
AcDbLine
 10
284.445851089087
 20
245.323902417793
 11
273.975465701067
 21
245.323902417793
  0
LINE
  5
CD
100
AcDbEntity
  8
1
  6
CONTINUOUS
 62
           3
100
AcDbLine
 10
283.903864059426
 20
243.111781205662
 11
284.445851089087
 21
245.323902417793
  0
LINE
  5
CC
100
AcDbEntity
  8
1
  6
CONTINUOUS
 62
           3
100
AcDbLine
 10
271.339401593847
 20
243.111781205662
 11
283.903864059426
 21
243.111781205662
  0
LINE
  5
CB
100
AcDbEntity
  8
1
  6
CONTINUOUS
 62
           3
100
AcDbLine
 10
274.591323771416
 20
256.38450847832
 11
271.339401593847
 21
243.111781205662
  0
LINE
  5
CA
100
AcDbEntity
  8
1
  6
CONTINUOUS
 62
           3
100
AcDbLine
 10
261.144653716558
 20
247.536023629844
 11
264.900368855924
 21
254.172387266269
  0
LINE
  5
C9
100
AcDbEntity
  8
1
  6
CONTINUOUS
 62
           3
100
AcDbLine
 10
265.957172001214
 20
254.172387266269
 11
264.900368855924
 21
254.172387266269
  0
LINE
  5
C8
100
AcDbEntity
  8
1
  6
CONTINUOUS
 62
           3
100
AcDbLine
 10
266.460964963069
 20
247.536023629844
 11
265.957172001214
 21
254.172387266269
  0
LINE
  5
C7
100
AcDbEntity
  8
1
  6
CONTINUOUS
 62
           3
100
AcDbLine
 10
261.144653716558
 20
247.536023629844
 11
266.460964963069
 21
247.536023629844
  0
LINE
  5
C6
100
AcDbEntity
  8
1
  6
CONTINUOUS
 62
           3
100
AcDbLine
 10
258.640843623664
 20
243.111781205662
 11
256.262046635093
 21
243.111781205662
  0
LINE
  5
C5
100
AcDbEntity
  8
1
  6
CONTINUOUS
 62
           3
100
AcDbLine
 10
259.892748670027
 20
245.323902417793
 11
258.640843623664
 21
243.111781205662
  0
LINE
  5
C4
100
AcDbEntity
  8
1
  6
CONTINUOUS
 62
           3
100
AcDbLine
 10
266.628895950391
 20
245.323902417793
 11
259.892748670027
 21
245.323902417793
  0
LINE
  5
C3
100
AcDbEntity
  8
1
  6
CONTINUOUS
 62
           3
100
AcDbLine
 10
266.796826937658
 20
243.111781205662
 11
266.628895950391
 21
245.323902417793
  0
LINE
  5
C2
100
AcDbEntity
  8
1
  6
CONTINUOUS
 62
           3
100
AcDbLine
 10
268.826509100727
 20
243.111781205662
 11
266.796826937658
 21
243.111781205662
  0
LINE
  5
C1
100
AcDbEntity
  8
1
  6
CONTINUOUS
 62
           3
100
AcDbLine
 10
267.818923176965
 20
256.38450847832
 11
268.826509100727
 21
243.111781205662
  0
LINE
  5
C0
100
AcDbEntity
  8
1
  6
CONTINUOUS
 62
           3
100
AcDbLine
 10
263.77347691399
 20
256.38450847832
 11
267.818923176965
 21
256.38450847832
  0
LINE
  5
BF
100
AcDbEntity
  8
1
  6
CONTINUOUS
 62
           3
100
AcDbLine
 10
256.262046635093
 20
243.111781205662
 11
263.77347691399
 21
256.38450847832
  0
LINE
  5
BE
100
AcDbEntity
  8
1
  6
CONTINUOUS
 62
           3
100
AcDbLine
 10
243.278768754059
 20
243.111781205662
 11
241.184691676499
 21
243.111781205662
  0
LINE
  5
BD
100
AcDbEntity
  8
1
  6
CONTINUOUS
 62
           3
100
AcDbLine
 10
246.084771050988
 20
254.564485538598
 11
243.278768754059
 21
243.111781205662
  0
LINE
  5
BC
100
AcDbEntity
  8
1
  6
CONTINUOUS
 62
           3
100
AcDbLine
 10
246.725319317498
 20
252.905394629535
 11
246.084771050988
 21
254.564485538598
  0
LINE
  5
BB
100
AcDbEntity
  8
1
  6
CONTINUOUS
 62
           3
100
AcDbLine
 10
250.506475653208
 20
243.111781205662
 11
246.725319317498
 21
252.905394629535
  0
LINE
  5
BA
100
AcDbEntity
  8
1
  6
CONTINUOUS
 62
           3
100
AcDbLine
 10
253.749154141977
 20
243.111781205662
 11
250.506475653208
 21
243.111781205662
  0
LINE
  5
B9
100
AcDbEntity
  8
1
  6
CONTINUOUS
 62
           3
100
AcDbLine
 10
257.001076319597
 20
256.38450847832
 11
253.749154141977
 21
243.111781205662
  0
LINE
  5
B8
100
AcDbEntity
  8
1
  6
CONTINUOUS
 62
           3
100
AcDbLine
 10
254.906999241983
 20
256.38450847832
 11
257.001076319597
 21
256.38450847832
  0
LINE
  5
B7
100
AcDbEntity
  8
1
  6
CONTINUOUS
 62
           3
100
AcDbLine
 10
252.06156733663
 20
244.770872114746
 11
254.906999241983
 21
256.38450847832
  0
LINE
  5
B6
100
AcDbEntity
  8
1
  6
CONTINUOUS
 62
           3
100
AcDbLine
 10
247.577729470355
 20
256.38450847832
 11
252.06156733663
 21
244.770872114746
  0
LINE
  5
B5
100
AcDbEntity
  8
1
  6
CONTINUOUS
 62
           3
100
AcDbLine
 10
244.436613854014
 20
256.38450847832
 11
247.577729470355
 21
256.38450847832
  0
LINE
  5
B4
100
AcDbEntity
  8
1
  6
CONTINUOUS
 62
           3
100
AcDbLine
 10
241.184691676499
 20
243.111781205662
 11
244.436613854014
 21
256.38450847832
  0
LINE
  5
B3
100
AcDbEntity
  8
1
  6
CONTINUOUS
 62
           3
100
AcDbLine
 10
241.923721360898
 20
256.38450847832
 11
239.829644283334
 21
256.38450847832
  0
LINE
  5
B2
100
AcDbEntity
  8
1
  6
CONTINUOUS
 62
           3
100
AcDbLine
 10
239.829644283334
 20
256.38450847832
 11
236.577722105769
 21
243.111781205662
  0
LINE
  5
B1
100
AcDbEntity
  8
1
  6
CONTINUOUS
 62
           3
100
AcDbLine
 10
238.671799183329
 20
243.111781205662
 11
241.923721360898
 21
256.38450847832
  0
LINE
  5
B0
100
AcDbEntity
  8
1
  6
CONTINUOUS
 62
           3
100
AcDbLine
 10
236.577722105769
 20
243.111781205662
 11
238.671799183329
 21
243.111781205662
  0
LINE
  5
AF
100
AcDbEntity
  8
1
  6
CONTINUOUS
 62
           3
100
AcDbLine
 10
234.084501950522
 20
251.739053932891
 11
236.178579028048
 21
251.739053932891
  0
LINE
  5
AE
100
AcDbEntity
  8
1
  6
CONTINUOUS
 62
           3
100
AcDbLine
 10
233.054726594372
 20
247.536023629844
 11
232.512739564605
 21
245.323902417793
  0
LINE
  5
AD
100
AcDbEntity
  8
1
  6
CONTINUOUS
 62
           3
100
AcDbLine
 10
228.866572438972
 20
247.536023629844
 11
233.054726594372
 21
247.536023629844
  0
LINE
  5
AC
100
AcDbEntity
  8
1
  6
CONTINUOUS
 62
           3
100
AcDbLine
 10
229.408559468619
 20
249.748144842033
 11
228.866572438972
 21
247.536023629844
  0
LINE
  5
AB
100
AcDbEntity
  8
1
  6
CONTINUOUS
 62
           3
100
AcDbLine
 10
235.690790701425
 20
249.748144842033
 11
234.064829612653
 21
243.111781205662
  0
LINE
  5
AA
100
AcDbEntity
  8
1
  6
CONTINUOUS
 62
           3
100
AcDbLine
 10
235.690790701425
 20
249.748144842033
 11
229.408559468619
 21
249.748144842033
  0
LINE
  5
A9
100
AcDbEntity
  8
1
  6
CONTINUOUS
 62
           3
100
AcDbLine
 10
224.136431254275
 20
245.323902417793
 11
226.304379372603
 21
254.172387266269
  0
LINE
  5
A8
100
AcDbEntity
  8
1
  6
CONTINUOUS
 62
           3
100
AcDbLine
 10
226.304379372603
 20
254.172387266269
 11
234.6806876829
 21
254.172387266269
  0
LINE
  5
A7
100
AcDbEntity
  8
1
  6
CONTINUOUS
 62
           3
100
AcDbLine
 10
234.6806876829
 20
254.172387266269
 11
234.084501950522
 21
251.739053932891
  0
LINE
  5
A6
100
AcDbEntity
  8
1
  6
CONTINUOUS
 62
           3
100
AcDbLine
 10
232.512739564605
 20
245.323902417793
 11
224.136431254275
 21
245.323902417793
  0
LINE
  5
A5
100
AcDbEntity
  8
1
  6
CONTINUOUS
 62
           3
100
AcDbLine
 10
234.064829612653
 20
243.111781205662
 11
221.50036714704
 21
243.111781205662
  0
LINE
  5
A4
100
AcDbEntity
  8
1
  6
CONTINUOUS
 62
           3
100
AcDbLine
 10
237.316751790175
 20
256.38450847832
 11
236.178579028048
 21
251.739053932891
  0
LINE
  5
A3
100
AcDbEntity
  8
1
  6
CONTINUOUS
 62
           3
100
AcDbLine
 10
224.752289324584
 20
256.38450847832
 11
237.316751790175
 21
256.38450847832
  0
LINE
  5
A2
100
AcDbEntity
  8
1
  6
CONTINUOUS
 62
           3
100
AcDbLine
 10
221.50036714704
 20
243.111781205662
 11
224.752289324584
 21
256.38450847832
  0
LINE
  5
A1
100
AcDbEntity
  8
1
  6
CONTINUOUS
 62
           3
100
AcDbLine
 10
218.987474654055
 20
243.111781205662
 11
222.239396831465
 21
256.38450847832
  0
LINE
  5
A0
100
AcDbEntity
  8
1
  6
CONTINUOUS
 62
           3
100
AcDbLine
 10
216.893397576336
 20
243.111781205662
 11
218.987474654055
 21
243.111781205662
  0
LINE
  5
9F
100
AcDbEntity
  8
1
  6
CONTINUOUS
 62
           3
100
AcDbLine
 10
220.145319753901
 20
256.38450847832
 11
216.893397576336
 21
243.111781205662
  0
LINE
  5
9E
100
AcDbEntity
  8
1
  6
CONTINUOUS
 62
           3
100
AcDbLine
 10
222.239396831465
 20
256.38450847832
 11
220.145319753901
 21
256.38450847832
  0
LINE
  5
9D
100
AcDbEntity
  8
1
  6
CONTINUOUS
 62
           3
100
AcDbLine
 10
203.910119695298
 20
243.111781205662
 11
204.994093754409
 21
247.536023629844
  0
LINE
  5
9C
100
AcDbEntity
  8
1
  6
CONTINUOUS
 62
           3
100
AcDbLine
 10
201.816042617622
 20
243.111781205662
 11
203.910119695298
 21
243.111781205662
  0
LINE
  5
9B
100
AcDbEntity
  8
1
  6
CONTINUOUS
 62
           3
100
AcDbLine
 10
215.328223469318
 20
246.979895810782
 11
214.380505083205
 21
243.111781205662
  0
LINE
  5
9A
100
AcDbEntity
  8
1
  6
CONTINUOUS
 62
           3
100
AcDbLine
 10
206.620054843184
 20
254.172387266269
 11
205.536080784001
 21
249.748144842033
  0
LINE
  5
99
100
AcDbEntity
  8
1
  6
CONTINUOUS
 62
           3
100
AcDbLine
 10
214.996363153703
 20
254.172387266269
 11
206.620054843184
 21
254.172387266269
  0
LINE
  5
98
100
AcDbEntity
  8
1
  6
CONTINUOUS
 62
           3
100
AcDbLine
 10
213.912389094381
 20
249.748144842033
 11
214.996363153703
 21
254.172387266269
  0
LINE
  5
97
100
AcDbEntity
  8
1
  6
CONTINUOUS
 62
           3
100
AcDbLine
 10
205.536080784001
 20
249.748144842033
 11
213.912389094381
 21
249.748144842033
  0
LINE
  5
96
100
AcDbEntity
  8
1
  6
CONTINUOUS
 62
           3
100
AcDbLine
 10
213.370402064938
 20
247.536023629844
 11
204.994093754409
 21
247.536023629844
  0
LINE
  5
95
100
AcDbEntity
  8
1
  6
CONTINUOUS
 62
           3
100
AcDbLine
 10
212.286428005566
 20
243.111781205662
 11
213.370402064938
 21
247.536023629844
  0
LINE
  5
94
100
AcDbEntity
  8
1
  6
CONTINUOUS
 62
           3
100
AcDbLine
 10
214.380505083205
 20
243.111781205662
 11
212.286428005566
 21
243.111781205662
  0
LINE
  5
93
100
AcDbEntity
  8
1
  6
CONTINUOUS
 62
           3
100
AcDbLine
 10
217.632427260738
 20
256.38450847832
 11
215.764903150884
 21
248.762204858332
  0
LINE
  5
92
100
AcDbEntity
  8
1
  6
CONTINUOUS
 62
           3
100
AcDbLine
 10
205.067964795158
 20
256.38450847832
 11
217.632427260738
 21
256.38450847832
  0
LINE
  5
91
100
AcDbEntity
  8
1
  6
CONTINUOUS
 62
           3
100
AcDbLine
 10
205.067964795158
 20
256.38450847832
 11
201.816042617622
 21
243.111781205662
  0
LINE
  5
90
100
AcDbEntity
  8
1
  6
CONTINUOUS
 62
           3
100
AcDbLine
 10
189.374751766132
 20
245.323902417793
 11
191.542699884474
 21
254.172387266269
  0
LINE
  5
8F
100
AcDbEntity
  8
1
  6
CONTINUOUS
 62
           3
100
AcDbLine
 10
191.542699884474
 20
254.172387266269
 11
199.919008194964
 21
254.172387266269
  0
LINE
  5
8E
100
AcDbEntity
  8
1
  6
CONTINUOUS
 62
           3
100
AcDbLine
 10
199.919008194964
 20
254.172387266269
 11
197.751060076487
 21
245.323902417793
  0
LINE
  5
8D
100
AcDbEntity
  8
1
  6
CONTINUOUS
 62
           3
100
AcDbLine
 10
197.751060076487
 20
245.323902417793
 11
189.374751766132
 21
245.323902417793
  0
LINE
  5
8C
100
AcDbEntity
  8
1
  6
CONTINUOUS
 62
           3
100
AcDbLine
 10
199.303150124491
 20
243.111781205662
 11
186.738687658966
 21
243.111781205662
  0
LINE
  5
8B
100
AcDbEntity
  8
1
  6
CONTINUOUS
 62
           3
100
AcDbLine
 10
202.555072302166
 20
256.38450847832
 11
199.303150124491
 21
243.111781205662
  0
LINE
  5
8A
100
AcDbEntity
  8
1
  6
CONTINUOUS
 62
           3
100
AcDbLine
 10
189.990609836448
 20
256.38450847832
 11
202.555072302166
 21
256.38450847832
  0
LINE
  5
89
100
AcDbEntity
  8
1
  6
CONTINUOUS
 62
           3
100
AcDbLine
 10
186.738687658966
 20
243.111781205662
 11
189.990609836448
 21
256.38450847832
  0
LINE
  5
88
100
AcDbEntity
  8
1
  6
CONTINUOUS
 62
           3
100
AcDbLine
 10
330.329503152207
 20
200.0
 11
277.738701733397
 21
200.0
  0
LINE
  5
87
100
AcDbEntity
  8
1
  6
CONTINUOUS
 62
           3
100
AcDbLine
 10
327.928830785688
 20
206.19393939391
 11
285.119681233515
 21
206.19393939391
  0
LINE
  5
86
100
AcDbEntity
  8
1
  6
CONTINUOUS
 62
           3
100
AcDbLine
 10
327.928830785688
 20
206.19393939391
 11
330.329503152207
 21
200.0
  0
LINE
  5
85
100
AcDbEntity
  8
1
  6
CONTINUOUS
 62
           3
100
AcDbLine
 10
320.686830708906
 20
224.878917066824
 11
317.906977584949
 21
232.051175145079
  0
LINE
  5
84
100
AcDbEntity
  8
1
  6
CONTINUOUS
 62
           3
100
AcDbLine
 10
326.284056889192
 20
232.051175145079
 11
320.686830708906
 21
224.878917066824
  0
LINE
  5
83
100
AcDbEntity
  8
1
  6
CONTINUOUS
 62
           3
100
AcDbLine
 10
330.32950315225
 20
232.051175145079
 11
326.284056889192
 21
232.051175145079
  0
LINE
  5
82
100
AcDbEntity
  8
1
  6
CONTINUOUS
 62
           3
100
AcDbLine
 10
322.029273107168
 20
221.415301218603
 11
330.32950315225
 21
232.051175145079
  0
LINE
  5
81
100
AcDbEntity
  8
1
  6
CONTINUOUS
 62
           3
100
AcDbLine
 10
326.899971200172
 20
208.848484848477
 11
322.029273107168
 21
221.415301218603
  0
LINE
  5
80
100
AcDbEntity
  8
1
  6
CONTINUOUS
 62
           3
100
AcDbLine
 10
322.854524937124
 20
208.848484848477
 11
326.899971200172
 21
208.848484848477
  0
LINE
  5
7F
100
AcDbEntity
  8
1
  6
CONTINUOUS
 62
           3
100
AcDbLine
 10
319.32626924244
 20
217.951685370502
 11
322.854524937124
 21
208.848484848477
  0
LINE
  5
7E
100
AcDbEntity
  8
1
  6
CONTINUOUS
 62
           3
100
AcDbLine
 10
312.222136662338
 20
208.848484848477
 11
319.32626924244
 21
217.951685370502
  0
LINE
  5
7D
100
AcDbEntity
  8
1
  6
CONTINUOUS
 62
           3
100
AcDbLine
 10
308.176690399341
 20
208.848484848477
 11
312.222136662338
 21
208.848484848477
  0
LINE
  5
7C
100
AcDbEntity
  8
1
  6
CONTINUOUS
 62
           3
100
AcDbLine
 10
317.983826844131
 20
221.415301218661
 11
308.176690399341
 21
208.848484848477
  0
LINE
  5
7B
100
AcDbEntity
  8
1
  6
CONTINUOUS
 62
           3
100
AcDbLine
 10
313.861531321934
 20
232.051175145079
 11
317.983826844131
 21
221.415301218661
  0
LINE
  5
7A
100
AcDbEntity
  8
1
  6
CONTINUOUS
 62
           3
100
AcDbLine
 10
317.906977584949
 20
232.051175145079
 11
313.861531321934
 21
232.051175145079
  0
LINE
  5
79
100
AcDbEntity
  8
1
  6
CONTINUOUS
 62
           3
100
AcDbLine
 10
300.878253440889
 20
232.051175145079
 11
295.643060746967
 21
232.051175145079
  0
LINE
  5
78
100
AcDbEntity
  8
1
  6
CONTINUOUS
 62
           3
100
AcDbLine
 10
296.277386577538
 20
213.272727272797
 11
300.878253440889
 21
232.051175145079
  0
LINE
  5
77
100
AcDbEntity
  8
1
  6
CONTINUOUS
 62
           3
100
AcDbLine
 10
301.51257927149
 20
213.272727272797
 11
296.277386577538
 21
213.272727272797
  0
LINE
  5
76
100
AcDbEntity
  8
1
  6
CONTINUOUS
 62
           3
100
AcDbLine
 10
306.113446134885
 20
232.051175145079
 11
301.51257927149
 21
213.272727272797
  0
LINE
  5
75
100
AcDbEntity
  8
1
  6
CONTINUOUS
 62
           3
100
AcDbLine
 10
311.348638828808
 20
232.051175145079
 11
306.113446134885
 21
232.051175145079
  0
LINE
  5
74
100
AcDbEntity
  8
1
  6
CONTINUOUS
 62
           3
100
AcDbLine
 10
305.6637979062
 20
208.848484848477
 11
311.348638828808
 21
232.051175145079
  0
LINE
  5
73
100
AcDbEntity
  8
1
  6
CONTINUOUS
 62
           3
100
AcDbLine
 10
289.958219824279
 20
208.848484848477
 11
305.6637979062
 21
208.848484848477
  0
LINE
  5
72
100
AcDbEntity
  8
1
  6
CONTINUOUS
 62
           3
100
AcDbLine
 10
295.643060746967
 20
232.051175145079
 11
289.958219824279
 21
208.848484848477
  0
LINE
  5
71
100
AcDbEntity
  8
1
  6
CONTINUOUS
 62
           3
100
AcDbLine
 10
288.301425922338
 20
243.111781205662
 11
277.738701733397
 21
200.0
  0
LINE
  5
70
100
AcDbEntity
  8
1
  6
CONTINUOUS
 62
           3
100
AcDbLine
 10
294.164841739606
 20
243.111781205662
 11
288.301425922338
 21
243.111781205662
  0
LINE
  5
6F
100
AcDbEntity
  8
1
  6
CONTINUOUS
 62
           3
100
AcDbLine
 10
285.119681233515
 20
206.19393939391
 11
294.164841739606
 21
243.111781205662
  0
LINE
  5
6E
100
AcDbEntity
  8
1
  6
CONTINUOUS
 62
           3
100
AcDbLine
 10
150.0
 20
200.0
 11
157.852789041055
 21
232.051175145079
  0
LINE
  5
6D
100
AcDbEntity
  8
1
  6
CONTINUOUS
 62
           3
100
AcDbLine
 10
157.852789041055
 20
232.051175145079
 11
164.135020273752
 21
232.051175145079
  0
LINE
  5
6C
100
AcDbEntity
  8
1
  6
CONTINUOUS
 62
           3
100
AcDbLine
 10
164.135020273752
 20
232.051175145079
 11
157.366205292063
 21
204.424242424182
  0
LINE
  5
6B
100
AcDbEntity
  8
1
  6
CONTINUOUS
 62
           3
100
AcDbLine
 10
157.366205292063
 20
204.424242424182
 11
162.601397985942
 21
204.424242424182
  0
LINE
  5
6A
100
AcDbEntity
  8
1
  6
CONTINUOUS
 62
           3
100
AcDbLine
 10
162.601397985942
 20
204.424242424182
 11
170.725180541824
 21
237.581478175405
  0
LINE
  5
69
100
AcDbEntity
  8
1
  6
CONTINUOUS
 62
           3
100
AcDbLine
 10
170.725180541824
 20
237.581478175405
 11
153.03408469729
 21
237.581478175405
  0
LINE
  5
68
100
AcDbEntity
  8
1
  6
CONTINUOUS
 62
           3
100
AcDbLine
 10
153.03408469729
 20
237.581478175405
 11
154.389052271275
 21
243.111781205662
  0
LINE
  5
67
100
AcDbEntity
  8
1
  6
CONTINUOUS
 62
           3
100
AcDbLine
 10
154.389052271275
 20
243.111781205662
 11
178.362379348568
 21
243.111781205662
  0
LINE
  5
66
100
AcDbEntity
  8
1
  6
CONTINUOUS
 62
           3
100
AcDbLine
 10
178.362379348568
 20
243.111781205662
 11
167.799655159648
 21
200.0
  0
LINE
  5
65
100
AcDbEntity
  8
1
  6
CONTINUOUS
 62
           3
100
AcDbLine
 10
167.799655159648
 20
200.0
 11
150.0
 21
200.0
  0
LINE
  5
64
100
AcDbEntity
  8
1
  6
CONTINUOUS
 62
           3
100
AcDbLine
 10
171.987809314774
 20
200.0
 11
179.840598355768
 21
232.051175145079
  0
LINE
  5
63
100
AcDbEntity
  8
1
  6
CONTINUOUS
 62
           3
100
AcDbLine
 10
179.840598355768
 20
232.051175145079
 11
186.122829588578
 21
232.051175145079
  0
LINE
  5
62
100
AcDbEntity
  8
1
  6
CONTINUOUS
 62
           3
100
AcDbLine
 10
186.122829588578
 20
232.051175145079
 11
179.354014606783
 21
204.424242424182
  0
LINE
  5
61
100
AcDbEntity
  8
1
  6
CONTINUOUS
 62
           3
100
AcDbLine
 10
179.354014606783
 20
204.424242424182
 11
184.589207300767
 21
204.424242424182
  0
LINE
  5
60
100
AcDbEntity
  8
1
  6
CONTINUOUS
 62
           3
100
AcDbLine
 10
184.589207300767
 20
204.424242424182
 11
191.358022282573
 21
232.051175145079
  0
LINE
  5
5F
100
AcDbEntity
  8
1
  6
CONTINUOUS
 62
           3
100
AcDbLine
 10
189.787464474364
 20
200.0
 11
171.987809314774
 21
200.0
  0
LINE
  5
5E
100
AcDbEntity
  8
1
  6
CONTINUOUS
 62
           3
100
AcDbLine
 10
191.358022282573
 20
232.051175145079
 11
197.640253515379
 21
232.051175145079
  0
LINE
  5
5D
100
AcDbEntity
  8
1
  6
CONTINUOUS
 62
           3
100
AcDbLine
 10
197.640253515379
 20
232.051175145079
 11
189.787464474364
 21
200.0
  0
LINE
  5
5C
100
AcDbEntity
  8
1
  6
CONTINUOUS
 62
           3
100
AcDbLine
 10
218.581024291314
 20
232.051175145079
 11
201.828407670542
 21
232.051175145079
  0
LINE
  5
5B
100
AcDbEntity
  8
1
  6
CONTINUOUS
 62
           3
100
AcDbLine
 10
201.828407670542
 20
232.051175145079
 11
197.227540807151
 21
213.272727272797
  0
LINE
  5
5A
100
AcDbEntity
  8
1
  6
CONTINUOUS
 62
           3
100
AcDbLine
 10
197.227540807151
 20
213.272727272797
 11
207.697926195117
 21
213.272727272797
  0
LINE
  5
59
100
AcDbEntity
  8
1
  6
CONTINUOUS
 62
           3
100
AcDbLine
 10
207.697926195117
 20
213.272727272797
 11
205.529978076698
 21
204.424242424182
  0
LINE
  5
58
100
AcDbEntity
  8
1
  6
CONTINUOUS
 62
           3
100
AcDbLine
 10
205.529978076698
 20
204.424242424182
 11
195.059592688787
 21
204.424242424182
  0
LINE
  5
57
100
AcDbEntity
  8
1
  6
CONTINUOUS
 62
           3
100
AcDbLine
 10
195.059592688787
 20
204.424242424182
 11
193.97561862948
 21
200.0
  0
LINE
  5
56
100
AcDbEntity
  8
1
  6
CONTINUOUS
 62
           3
100
AcDbLine
 10
193.97561862948
 20
200.0
 11
210.728235250303
 21
200.0
  0
LINE
  5
55
100
AcDbEntity
  8
1
  6
CONTINUOUS
 62
           3
100
AcDbLine
 10
210.728235250303
 20
200.0
 11
215.064131487226
 21
217.696969696953
  0
LINE
  5
54
100
AcDbEntity
  8
1
  6
CONTINUOUS
 62
           3
100
AcDbLine
 10
215.064131487226
 20
217.696969696953
 11
204.593746099163
 21
217.696969696953
  0
LINE
  5
53
100
AcDbEntity
  8
1
  6
CONTINUOUS
 62
           3
100
AcDbLine
 10
204.593746099163
 20
217.696969696953
 11
207.026664844176
 21
227.626932720839
  0
LINE
  5
52
100
AcDbEntity
  8
1
  6
CONTINUOUS
 62
           3
100
AcDbLine
 10
207.026664844176
 20
227.626932720839
 11
217.497050232156
 21
227.626932720839
  0
LINE
  5
51
100
AcDbEntity
  8
1
  6
CONTINUOUS
 62
           3
100
AcDbLine
 10
217.497050232156
 20
227.626932720839
 11
218.581024291314
 21
232.051175145079
  0
LINE
  5
50
100
AcDbEntity
  8
1
  6
CONTINUOUS
 62
           3
100
AcDbLine
 10
236.811859919322
 20
220.990569084413
 11
239.521795067252
 21
232.051175145079
  0
LINE
  5
4F
100
AcDbEntity
  8
1
  6
CONTINUOUS
 62
           3
100
AcDbLine
 10
239.521795067252
 20
232.051175145079
 11
222.769178446531
 21
232.051175145079
  0
LINE
  5
4E
100
AcDbEntity
  8
1
  6
CONTINUOUS
 62
           3
100
AcDbLine
 10
222.769178446531
 20
232.051175145079
 11
214.916389405538
 21
200.0
  0
LINE
  5
4D
100
AcDbEntity
  8
1
  6
CONTINUOUS
 62
           3
100
AcDbLine
 10
214.916389405538
 20
200.0
 11
231.669006026292
 21
200.0
  0
LINE
  5
4C
100
AcDbEntity
  8
1
  6
CONTINUOUS
 62
           3
100
AcDbLine
 10
231.669006026292
 20
200.0
 11
234.378941174266
 21
211.060606060608
  0
LINE
  5
4B
100
AcDbEntity
  8
1
  6
CONTINUOUS
 62
           3
100
AcDbLine
 10
234.378941174266
 20
211.060606060608
 11
228.096709941478
 21
211.060606060608
  0
LINE
  5
4A
100
AcDbEntity
  8
1
  6
CONTINUOUS
 62
           3
100
AcDbLine
 10
228.096709941478
 20
211.060606060608
 11
226.470748852691
 21
204.424242424182
  0
LINE
  5
49
100
AcDbEntity
  8
1
  6
CONTINUOUS
 62
           3
100
AcDbLine
 10
226.470748852691
 20
204.424242424182
 11
222.282594697488
 21
204.424242424182
  0
LINE
  5
48
100
AcDbEntity
  8
1
  6
CONTINUOUS
 62
           3
100
AcDbLine
 10
222.282594697488
 20
204.424242424182
 11
227.967435620118
 21
227.626932720839
  0
LINE
  5
47
100
AcDbEntity
  8
1
  6
CONTINUOUS
 62
           3
100
AcDbLine
 10
227.967435620118
 20
227.626932720839
 11
232.15558977531
 21
227.626932720839
  0
LINE
  5
46
100
AcDbEntity
  8
1
  6
CONTINUOUS
 62
           3
100
AcDbLine
 10
232.15558977531
 20
227.626932720839
 11
230.529628686516
 21
220.990569084413
  0
LINE
  5
45
100
AcDbEntity
  8
1
  6
CONTINUOUS
 62
           3
100
AcDbLine
 10
230.529628686516
 20
220.990569084413
 11
236.811859919322
 21
220.990569084413
  0
LINE
  5
44
100
AcDbEntity
  8
1
  6
CONTINUOUS
 62
           3
100
AcDbLine
 10
235.857160181473
 20
200.0
 11
242.139391414261
 21
200.0
  0
LINE
  5
43
100
AcDbEntity
  8
1
  6
CONTINUOUS
 62
           3
100
AcDbLine
 10
252.609776802336
 20
200.0
 11
260.462565843351
 21
232.051175145079
  0
LINE
  5
42
100
AcDbEntity
  8
1
  6
CONTINUOUS
 62
           3
100
AcDbLine
 10
246.327545569439
 20
200.0
 11
249.711953060334
 21
213.813466360341
  0
LINE
  5
41
100
AcDbEntity
  8
1
  6
CONTINUOUS
 62
           3
100
AcDbLine
 10
242.139391414261
 20
200.0
 11
245.523798905146
 21
213.813466360341
  0
LINE
  5
40
100
AcDbEntity
  8
1
  6
CONTINUOUS
 62
           3
100
AcDbLine
 10
243.709949222466
 20
232.051175145079
 11
235.857160181473
 21
200.0
  0
LINE
  5
3F
100
AcDbEntity
  8
1
  6
CONTINUOUS
 62
           3
100
AcDbLine
 10
260.462565843351
 20
232.051175145079
 11
254.180334610435
 21
232.051175145079
  0
LINE
  5
3E
100
AcDbEntity
  8
1
  6
CONTINUOUS
 62
           3
100
AcDbLine
 10
256.797930957462
 20
200.0
 11
273.55054757827
 21
200.0
  0
LINE
  5
3D
100
AcDbEntity
  8
1
  6
CONTINUOUS
 62
           3
100
AcDbLine
 10
268.352290404568
 20
204.424242424182
 11
264.164136249467
 21
204.424242424182
  0
LINE
  5
3C
100
AcDbEntity
  8
1
  6
CONTINUOUS
 62
           3
100
AcDbLine
 10
264.650719998459
 20
232.051175145079
 11
256.797930957462
 21
200.0
  0
LINE
  5
3B
100
AcDbEntity
  8
1
  6
CONTINUOUS
 62
           3
100
AcDbLine
 10
264.164136249467
 20
204.424242424182
 11
269.848977172042
 21
227.626932720839
  0
LINE
  5
3A
100
AcDbEntity
  8
1
  6
CONTINUOUS
 62
           3
100
AcDbLine
 10
281.403336619289
 20
232.051175145079
 11
264.650719998459
 21
232.051175145079
  0
LINE
  5
39
100
AcDbEntity
  8
1
  6
CONTINUOUS
 62
           3
100
AcDbLine
 10
269.848977172042
 20
227.626932720839
 11
274.037131327292
 21
227.626932720839
  0
LINE
  5
38
100
AcDbEntity
  8
1
  6
CONTINUOUS
 62
           3
100
AcDbLine
 10
274.037131327292
 20
227.626932720839
 11
268.352290404568
 21
204.424242424182
  0
LINE
  5
37
100
AcDbEntity
  8
1
  6
CONTINUOUS
 62
           3
100
AcDbLine
 10
281.403336619289
 20
232.051175145079
 11
273.55054757827
 21
200.0
  0
LINE
  5
36
100
AcDbEntity
  8
1
  6
CONTINUOUS
 62
           3
100
AcDbLine
 10
249.992180455331
 20
232.051175145079
 11
243.709949222466
 21
232.051175145079
  0
LINE
  5
35
100
AcDbEntity
  8
1
  6
CONTINUOUS
 62
           3
100
AcDbLine
 10
246.327545569439
 20
200.0
 11
252.609776802336
 21
200.0
  0
LINE
  5
34
100
AcDbEntity
  8
1
  6
CONTINUOUS
 62
           3
100
AcDbLine
 10
245.523798905146
 20
213.813466360341
 11
249.711953060334
 21
213.813466360341
  0
LINE
  5
33
100
AcDbEntity
  8
1
  6
CONTINUOUS
 62
           3
100
AcDbLine
 10
246.607772964315
 20
218.237708784527
 11
250.795927119554
 21
218.237708784527
  0
LINE
  5
32
100
AcDbEntity
  8
1
  6
CONTINUOUS
 62
           3
100
AcDbLine
 10
246.607772964315
 20
218.237708784527
 11
249.992180455331
 21
232.051175145079
  0
LINE
  5
31
100
AcDbEntity
  8
1
  6
CONTINUOUS
 62
           3
100
AcDbLine
 10
250.795927119554
 20
218.237708784527
 11
254.180334610435
 21
232.051175145079
  0
LINE
  5
30
100
AcDbEntity
  8
1
  6
CONTINUOUS
 62
           3
100
AcDbLine
 10
215.764903150884
 20
248.762204858332
 11
215.032820381937
 21
247.978447872363
  0
LINE
  5
2F
100
AcDbEntity
  8
1
  6
CONTINUOUS
 62
           3
100
AcDbLine
 10
215.328223469318
 20
246.979895810782
 11
215.032820381937
 21
247.978447872363
  0
ENDBLK
  5
E3
100
AcDbEntity
  8
0
100
AcDbBlockEnd
  0
BLOCK
  5
2A
100
AcDbEntity
  8
0
100
AcDbBlockBegin
  2
WANNE_ANCONA_TREND_647
 70
           0
 10
0.0
 20
0.0
 30
0.0
  3
WANNE_ANCONA_TREND_647
  1

  0
ARC
  5
F5
100
AcDbEntity
  8
1
  6
CONTINUOUS
 62
           7
100
AcDbCircle
 10
1115.0
 20
715.0
 40
25.0
100
AcDbArc
 50
0.0
 51
90.0
  0
ARC
  5
F4
100
AcDbEntity
  8
1
  6
CONTINUOUS
 62
           7
100
AcDbCircle
 10
85.0
 20
715.0
 40
25.0
100
AcDbArc
 50
90.0
 51
180.0
  0
ARC
  5
F3
100
AcDbEntity
  8
1
  6
CONTINUOUS
 62
           7
100
AcDbCircle
 10
85.0
 20
85.0
 40
25.0
100
AcDbArc
 50
180.0
 51
-90.0
  0
ARC
  5
F2
100
AcDbEntity
  8
1
  6
CONTINUOUS
 62
           7
100
AcDbCircle
 10
1115.0
 20
85.0
 40
25.0
100
AcDbArc
 50
-90.0
 51
0.0
  0
CIRCLE
  5
F1
100
AcDbEntity
  8
GEOMETRIE
  6
CONTINUOUS
 62
           7
100
AcDbCircle
 10
1050.0
 20
650.0
 40
75.67802
  0
CIRCLE
  5
F0
100
AcDbEntity
  8
GEOMETRIE
  6
CONTINUOUS
 62
           7
100
AcDbCircle
 10
1050.0
 20
650.0
 40
68.395779
  0
CIRCLE
  5
EF
100
AcDbEntity
  8
GEOMETRIE
  6
CONTINUOUS
 62
           7
100
AcDbCircle
 10
1050.0
 20
650.0
 40
54.964289
  0
CIRCLE
  5
EE
100
AcDbEntity
  8
GEOMETRIE
  6
CONTINUOUS
 62
           7
100
AcDbCircle
 10
1050.0
 20
650.0
 40
45.0
  0
LINE
  5
ED
100
AcDbEntity
  8
MITTELLINIEN
  6
DOT_CENTER
 62
           3
100
AcDbLine
 10
1050.0
 20
743.989954999997
 11
1050.0
 21
554.321981000001
  0
LINE
  5
EC
100
AcDbEntity
  8
MITTELLINIEN
  6
DOT_CENTER
 62
           3
100
AcDbLine
 10
1143.989955
 20
650.0
 11
954.321981
 21
650.0
  0
LINE
  5
EB
100
AcDbEntity
  8
1
  6
CONTINUOUS
 62
           7
100
AcDbLine
 10
1200.0
 20
800.0
 11
1200.0
 21
0.0
  0
LINE
  5
EA
100
AcDbEntity
  8
1
  6
CONTINUOUS
 62
           7
100
AcDbLine
 10
0.0
 20
0.0
 11
0.0
 21
800.0
  0
LINE
  5
E9
100
AcDbEntity
  8
1
  6
CONTINUOUS
 62
           7
100
AcDbLine
 10
0.0
 20
0.0
 11
1200.0
 21
0.0
  0
LINE
  5
E8
100
AcDbEntity
  8
1
  6
CONTINUOUS
 62
           7
100
AcDbLine
 10
0.0
 20
800.0
 11
1200.0
 21
800.0
  0
LINE
  5
E7
100
AcDbEntity
  8
1
  6
CONTINUOUS
 62
           7
100
AcDbLine
 10
1140.0
 20
715.0
 11
1140.0
 21
85.0
  0
LINE
  5
E6
100
AcDbEntity
  8
1
  6
CONTINUOUS
 62
           7
100
AcDbLine
 10
85.0
 20
740.0
 11
1115.0
 21
740.0
  0
LINE
  5
E5
100
AcDbEntity
  8
1
  6
CONTINUOUS
 62
           7
100
AcDbLine
 10
85.0
 20
60.0
 11
1115.0
 21
60.0
  0
LINE
  5
E4
100
AcDbEntity
  8
1
  6
CONTINUOUS
 62
           7
100
AcDbLine
 10
60.0
 20
85.0
 11
60.0
 21
715.0
  0
ENDBLK
  5
F6
100
AcDbEntity
  8
0
100
AcDbBlockEnd
  0
ENDSEC
  0
SECTION
  2
ENTITIES
  0
MTEXT
  5
FA
100
AcDbEntity
  8
1
 62
           3
100
AcDbMText
 10
975.0
 20
575.000000000001
 30
0.0
 40
35.0
 41
0.0
 71
           3
 72
           1
  1
ø 90
  7
CONVERTER_1
  0
TEXT
  5
F9
100
AcDbEntity
  8
1
 62
           2
100
AcDbText
 10
150.0
 20
125.0
 40
35.0
  1
ANCONA Trend 647
 41
0.71262
  7
CONVERTER_1
100
AcDbText
  0
INSERT
  5
2D
100
AcDbEntity
  8
0
100
AcDbBlockReference
  2
DLX
 10
0.0
 20
0.0
  0
INSERT
  5
2E
100
AcDbEntity
  8
0
100
AcDbBlockReference
  2
WANNE_ANCONA_TREND_647
 10
0.0
 20
0.0
  0
ENDSEC
  0
SECTION
  2
OBJECTS
  0
DICTIONARY
  5
19
100
AcDbDictionary
  3
ACAD_GROUP
350
1A
  3
ACAD_MLINESTYLE
350
1B
  0
DICTIONARY
  5
1A
102
{ACAD_REACTORS
330
19
102
}
100
AcDbDictionary
  0
DICTIONARY
  5
1B
102
{ACAD_REACTORS
330
19
102
}
100
AcDbDictionary
  3
STANDARD
350
1C
  0
MLINESTYLE
  5
1C
102
{ACAD_REACTORS
330
1B
102
}
100
AcDbMlineStyle
  2
STANDARD
 70
           0
  3

 62
           0
 51
90.0
 52
90.0
 71
           2
 49
0.5
 62
         256
  6
BYLAYER
 49
-0.5
 62
         256
  6
BYLAYER
  0
ENDSEC
  0
EOF
