  0
SECTION
  2
HEADER
  9
$ACADVER
  1
AC1009
  9
$INSBASE
 10
0
 20
0
  9
$EXTMIN
 10
0
 20
0
  9
$EXTMAX
 10
900
 20
900
  9
$LIMMIN
 10
0
 20
0
  9
$LIMMAX
 10
900
 20
900
  9
$VIEWCTR
 10
10
 20
10
  9
$VIEWSIZE
 40
10
  9
$SNAPMODE
 70
0
  9
$SNAPUNIT
 10
1
 20
1
  9
$SNAPBASE
 10
0
 20
0
  9
$SNAPANG
 50
0
  9
$SNAPSTYLE
 70
0
  9
$SNAPISOPAIR
 70
0
  9
$GRIDMODE
 70
0
  9
$GRIDUNIT
 10
0
 20
0
  9
$ORTHOMODE
 70
0
  9
$REGENMODE
 70
1
  9
$FILLMODE
 70
1
  9
$QTEXTMODE
 70
0
  9
$DRAGMODE
 70
2
  9
$LTSCALE
 40
1
  9
$OSMODE
 70
0
  9
$ATTMODE
 70
1
  9
$TEXTSIZE
 40
3.5
  9
$TRACEWID
 40
0.5
  9
$TEXTSTYLE
  7
STANDARD
  9
$CLAYER
  8
0
  9
$CELTYPE
  6
BYLAYER
  9
$CECOLOR
 62
256
  9
$DIMSCALE
 40
1
  9
$DIMASZ
 40
0.18
  9
$DIMEXO
 40
0.0625
  9
$DIMDLI
 40
0.38
  9
$DIMRND
 40
0
  9
$DIMDLE
 40
0
  9
$DIMEXE
 40
0.18
  9
$DIMTP
 40
0
  9
$DIMTM
 40
0
  9
$DIMTXT
 40
0.18
  9
$DIMCEN
 40
0.09
  9
$DIMTSZ
 40
0
  9
$DIMTOL
 70
0
  9
$DIMLIM
 70
0
  9
$DIMTIH
 70
1
  9
$DIMTOH
 70
1
  9
$DIMSE1
 70
0
  9
$DIMSE2
 70
0
  9
$DIMTAD
 70
0
  9
$DIMZIN
 70
0
  9
$DIMBLK
  1

  9
$DIMASO
 70
1
  9
$DIMSHO
 70
1
  9
$DIMPOST
  1

  9
$DIMAPOST
  1

  9
$DIMALT
 70
0
  9
$DIMALTD
 70
2
  9
$DIMALTF
 40
25.4
  9
$DIMLFAC
 40
1
  9
$DIMTOFL
 70
0
  9
$DIMTVP
 40
0
  9
$DIMTIX
 70
0
  9
$DIMSOXD
 70
0
  9
$DIMSAH
 70
0
  9
$DIMBLK1
  1

  9
$DIMBLK2
  1

  9
$DIMSTYLE
  2
*UNNAMED
  9
$DIMCLRD
 70
0
  9
$DIMCLRE
 70
0
  9
$DIMCLRT
 70
0
  9
$DIMTFAC
 40
1
  9
$DIMGAP
 40
0.09
  9
$LUNITS
 70
2
  9
$LUPREC
 70
4
  9
$AXISMODE
 70
0
  9
$AXISUNIT
 10
0
 20
0
  9
$SKETCHINC
 40
0.1
  9
$FILLETRAD
 40
2
  9
$AUNITS
 70
0
  9
$AUPREC
 70
0
  9
$MENU
  1
ACAD
  9
$ELEVATION
 40
0
  9
$THICKNESS
 40
0
  9
$VIEWDIR
 10
0
 20
0
 30
1
  9
$LIMCHECK
 70
0
  9
$BLIPMODE
 70
1
  9
$CHAMFERA
 40
0
  9
$CHAMFERB
 40
0
  9
$FASTZOOM
 70
1
  9
$SKPOLY
 70
0
  9
$ANGBASE
 50
0
  9
$ANGDIR
 70
0
  9
$PDMODE
 70
0
  9
$PDSIZE
 40
0
  9
$PLINEWID
 40
0
  9
$COORDS
 70
2
  0
ENDSEC
  0
SECTION
  2
TABLES
  0
TABLE
  2
DIMSTYLE
 70
0
  0
ENDTAB
  0
TABLE
  2
LTYPE
 70
9
  0
LTYPE
  2
CONTINUOUS
 70
64
  3
Solid line
 72
65
 73
0
 40
0
  0
LTYPE
  2
BORDER
 70
64
  3
__ __ . __ __ .
 72
65
 73
6
 40
41.44736842105264
 49
11.8421052631579
 49
-5.921052631578948
 49
11.8421052631579
 49
-5.921052631578948
 49
0
 49
-5.921052631578948
  0
LTYPE
  2
CENTER
 70
64
  3
____ _ ____ _
 72
65
 73
4
 40
47.36842105263158
 49
29.60526315789474
 49
-5.921052631578948
 49
5.921052631578948
 49
-5.921052631578948
  0
LTYPE
  2
DASHDOT
 70
64
  3
__ . __ . __ .
 72
65
 73
4
 40
23.68421052631579
 49
11.8421052631579
 49
-5.921052631578948
 49
0
 49
-5.921052631578948
  0
LTYPE
  2
DASHED
 70
64
  3
__ __ __ __ __
 72
65
 73
2
 40
17.76315789473684
 49
11.8421052631579
 49
-5.921052631578948
  0
LTYPE
  2
DIVIDE
 70
64
  3
__ . . __ . . 
 72
65
 73
6
 40
29.60526315789474
 49
11.8421052631579
 49
-5.921052631578948
 49
0
 49
-5.921052631578948
 49
0
 49
-5.921052631578948
  0
LTYPE
  2
DOT
 70
64
  3
..............
 72
65
 73
4
 40
11.8421052631579
 49
0
 49
-5.921052631578948
 49
0
 49
-5.921052631578948
  0
LTYPE
  2
HIDDEN
 70
64
  3
_ _ _ _ _ _ _
 72
65
 73
2
 40
8.881578947368421
 49
5.921052631578948
 49
-2.960526315789474
  0
LTYPE
  2
PHANTOM
 70
64
  3
_____ _ _ _____ _ _ 
 72
65
 73
6
 40
59.21052631578948
 49
29.60526315789474
 49
-5.921052631578948
 49
5.921052631578948
 49
-5.921052631578948
 49
5.921052631578948
 49
-5.921052631578948
  0
ENDTAB
  0
TABLE
  2
LAYER
 70
5
  0
LAYER
  2
MITTELLINIEN
 70
0
 62
7
  6
CONTINUOUS
  0
LAYER
  2
1
 70
0
 62
7
  6
CONTINUOUS
  0
LAYER
  2
GEOMETRIE
 70
0
 62
7
  6
CONTINUOUS
  0
LAYER
  2
0
 70
0
 62
7
  6
CONTINUOUS
  0
ENDTAB
  0
TABLE
  2
STYLE
 70
4
  0
STYLE
  2
STANDARD
 70
0
 40
0
 41
1
 50
0
 71
0
 42
3.5
  3
txt
  4

  0
STYLE
  2
SIMPLEX
 70
0
 40
0
 41
1
 50
0
 71
0
 42
3.5
  3
simplex
  4

  0
STYLE
  2
COMPLEX
 70
0
 40
0
 41
1
 50
0
 71
0
 42
3.5
  3
complex
  4

  0
STYLE
  2
ITALIC
 70
0
 40
0
 41
1
 50
0
 71
0
 42
3.5
  3
italic
  4

  0
ENDTAB
  0
TABLE
  2
VIEW
 70
0
  0
ENDTAB
  0
ENDSEC
  0
SECTION
  2
BLOCKS
  0
BLOCK
  8
0
  2
DLX
 70
0
 10
100
 20
450.0000000000002
 30
0
  0
LINE
  8
1
 62
3
 10
165.3282234693179
 20
496.9798958107822
 30
0
 11
165.0328203819372
 21
497.9784478723632
 31
0
  0
LINE
  8
1
 62
3
 10
165.7649031508845
 20
498.7622048583321
 30
0
 11
165.0328203819372
 21
497.9784478723632
 31
0
  0
LINE
  8
1
 62
3
 10
200.7959271195539
 20
468.2377087845273
 30
0
 11
204.1803346104349
 21
482.0511751450792
 31
0
  0
LINE
  8
1
 62
3
 10
196.6077729643149
 20
468.2377087845273
 30
0
 11
199.992180455331
 21
482.0511751450792
 31
0
  0
LINE
  8
1
 62
3
 10
196.6077729643149
 20
468.2377087845273
 30
0
 11
200.7959271195539
 21
468.2377087845273
 31
0
  0
LINE
  8
1
 62
3
 10
195.5237989051459
 20
463.8134663603412
 30
0
 11
199.7119530603338
 21
463.8134663603412
 31
0
  0
LINE
  8
1
 62
3
 10
196.3275455694388
 20
450.0000000000002
 30
0
 11
202.6097768023359
 21
450.0000000000002
 31
0
  0
LINE
  8
1
 62
3
 10
199.992180455331
 20
482.0511751450792
 30
0
 11
193.709949222466
 21
482.0511751450792
 31
0
  0
LINE
  8
1
 62
3
 10
231.4033366192889
 20
482.0511751450792
 30
0
 11
223.5505475782701
 21
450.0000000000002
 31
0
  0
LINE
  8
1
 62
3
 10
224.0371313272921
 20
477.6269327208393
 30
0
 11
218.3522904045677
 21
454.4242424241822
 31
0
  0
LINE
  8
1
 62
3
 10
219.8489771720418
 20
477.6269327208393
 30
0
 11
224.0371313272921
 21
477.6269327208393
 31
0
  0
LINE
  8
1
 62
3
 10
231.4033366192889
 20
482.0511751450792
 30
0
 11
214.6507199984591
 21
482.0511751450792
 31
0
  0
LINE
  8
1
 62
3
 10
214.164136249467
 20
454.4242424241822
 30
0
 11
219.8489771720418
 21
477.6269327208393
 31
0
  0
LINE
  8
1
 62
3
 10
214.6507199984591
 20
482.0511751450792
 30
0
 11
206.797930957462
 21
450.0000000000002
 31
0
  0
LINE
  8
1
 62
3
 10
218.3522904045677
 20
454.4242424241822
 30
0
 11
214.164136249467
 21
454.4242424241822
 31
0
  0
LINE
  8
1
 62
3
 10
206.797930957462
 20
450.0000000000002
 30
0
 11
223.5505475782701
 21
450.0000000000002
 31
0
  0
LINE
  8
1
 62
3
 10
210.4625658433507
 20
482.0511751450792
 30
0
 11
204.1803346104349
 21
482.0511751450792
 31
0
  0
LINE
  8
1
 62
3
 10
193.709949222466
 20
482.0511751450792
 30
0
 11
185.857160181473
 21
450.0000000000002
 31
0
  0
LINE
  8
1
 62
3
 10
192.1393914142609
 20
450.0000000000002
 30
0
 11
195.5237989051459
 21
463.8134663603412
 31
0
  0
LINE
  8
1
 62
3
 10
196.3275455694388
 20
450.0000000000002
 30
0
 11
199.7119530603338
 21
463.8134663603412
 31
0
  0
LINE
  8
1
 62
3
 10
202.6097768023359
 20
450.0000000000002
 30
0
 11
210.4625658433507
 21
482.0511751450792
 31
0
  0
LINE
  8
1
 62
3
 10
185.857160181473
 20
450.0000000000002
 30
0
 11
192.1393914142609
 21
450.0000000000002
 31
0
  0
LINE
  8
1
 62
3
 10
180.5296286865158
 20
470.9905690844132
 30
0
 11
186.8118599193218
 21
470.9905690844132
 31
0
  0
LINE
  8
1
 62
3
 10
182.15558977531
 20
477.6269327208393
 30
0
 11
180.5296286865158
 21
470.9905690844132
 31
0
  0
LINE
  8
1
 62
3
 10
177.9674356201177
 20
477.6269327208393
 30
0
 11
182.15558977531
 21
477.6269327208393
 31
0
  0
LINE
  8
1
 62
3
 10
172.2825946974881
 20
454.4242424241822
 30
0
 11
177.9674356201177
 21
477.6269327208393
 31
0
  0
LINE
  8
1
 62
3
 10
176.4707488526909
 20
454.4242424241822
 30
0
 11
172.2825946974881
 21
454.4242424241822
 31
0
  0
LINE
  8
1
 62
3
 10
178.0967099414779
 20
461.0606060606083
 30
0
 11
176.4707488526909
 21
454.4242424241822
 31
0
  0
LINE
  8
1
 62
3
 10
184.3789411742661
 20
461.0606060606083
 30
0
 11
178.0967099414779
 21
461.0606060606083
 31
0
  0
LINE
  8
1
 62
3
 10
181.669006026292
 20
450.0000000000002
 30
0
 11
184.3789411742661
 21
461.0606060606083
 31
0
  0
LINE
  8
1
 62
3
 10
164.9163894055382
 20
450.0000000000002
 30
0
 11
181.669006026292
 21
450.0000000000002
 31
0
  0
LINE
  8
1
 62
3
 10
172.7691784465313
 20
482.0511751450792
 30
0
 11
164.9163894055382
 21
450.0000000000002
 31
0
  0
LINE
  8
1
 62
3
 10
189.5217950672519
 20
482.0511751450792
 30
0
 11
172.7691784465313
 21
482.0511751450792
 31
0
  0
LINE
  8
1
 62
3
 10
186.8118599193218
 20
470.9905690844132
 30
0
 11
189.5217950672519
 21
482.0511751450792
 31
0
  0
LINE
  8
1
 62
3
 10
167.4970502321555
 20
477.6269327208393
 30
0
 11
168.5810242913141
 21
482.0511751450792
 31
0
  0
LINE
  8
1
 62
3
 10
157.0266648441757
 20
477.6269327208393
 30
0
 11
167.4970502321555
 21
477.6269327208393
 31
0
  0
LINE
  8
1
 62
3
 10
154.5937460991627
 20
467.6969696969532
 30
0
 11
157.0266648441757
 21
477.6269327208393
 31
0
  0
LINE
  8
1
 62
3
 10
165.0641314872264
 20
467.6969696969532
 30
0
 11
154.5937460991627
 21
467.6969696969532
 31
0
  0
LINE
  8
1
 62
3
 10
160.7282352503024
 20
450.0000000000002
 30
0
 11
165.0641314872264
 21
467.6969696969532
 31
0
  0
LINE
  8
1
 62
3
 10
143.9756186294799
 20
450.0000000000002
 30
0
 11
160.7282352503024
 21
450.0000000000002
 31
0
  0
LINE
  8
1
 62
3
 10
145.0595926887872
 20
454.4242424241822
 30
0
 11
143.9756186294799
 21
450.0000000000002
 31
0
  0
LINE
  8
1
 62
3
 10
155.5299780766982
 20
454.4242424241822
 30
0
 11
145.0595926887872
 21
454.4242424241822
 31
0
  0
LINE
  8
1
 62
3
 10
157.6979261951166
 20
463.2727272727973
 30
0
 11
155.5299780766982
 21
454.4242424241822
 31
0
  0
LINE
  8
1
 62
3
 10
147.2275408071509
 20
463.2727272727973
 30
0
 11
157.6979261951166
 21
463.2727272727973
 31
0
  0
LINE
  8
1
 62
3
 10
151.8284076705422
 20
482.0511751450792
 30
0
 11
147.2275408071509
 21
463.2727272727973
 31
0
  0
LINE
  8
1
 62
3
 10
168.5810242913141
 20
482.0511751450792
 30
0
 11
151.8284076705422
 21
482.0511751450792
 31
0
  0
LINE
  8
1
 62
3
 10
147.6402535153793
 20
482.0511751450792
 30
0
 11
139.7874644743642
 21
450.0000000000002
 31
0
  0
LINE
  8
1
 62
3
 10
141.3580222825731
 20
482.0511751450792
 30
0
 11
147.6402535153793
 21
482.0511751450792
 31
0
  0
LINE
  8
1
 62
3
 10
139.7874644743642
 20
450.0000000000002
 30
0
 11
121.9878093147745
 21
450.0000000000002
 31
0
  0
LINE
  8
1
 62
3
 10
134.5892073007672
 20
454.4242424241822
 30
0
 11
141.3580222825731
 21
482.0511751450792
 31
0
  0
LINE
  8
1
 62
3
 10
129.3540146067826
 20
454.4242424241822
 30
0
 11
134.5892073007672
 21
454.4242424241822
 31
0
  0
LINE
  8
1
 62
3
 10
136.1228295885776
 20
482.0511751450792
 30
0
 11
129.3540146067826
 21
454.4242424241822
 31
0
  0
LINE
  8
1
 62
3
 10
129.8405983557677
 20
482.0511751450792
 30
0
 11
136.1228295885776
 21
482.0511751450792
 31
0
  0
LINE
  8
1
 62
3
 10
121.9878093147745
 20
450.0000000000002
 30
0
 11
129.8405983557677
 21
482.0511751450792
 31
0
  0
LINE
  8
1
 62
3
 10
117.799655159648
 20
450.0000000000002
 30
0
 11
100
 21
450.0000000000002
 31
0
  0
LINE
  8
1
 62
3
 10
128.3623793485676
 20
493.1117812056623
 30
0
 11
117.799655159648
 21
450.0000000000002
 31
0
  0
LINE
  8
1
 62
3
 10
104.3890522712754
 20
493.1117812056623
 30
0
 11
128.3623793485676
 21
493.1117812056623
 31
0
  0
LINE
  8
1
 62
3
 10
103.0340846972904
 20
487.5814781754052
 30
0
 11
104.3890522712754
 21
493.1117812056623
 31
0
  0
LINE
  8
1
 62
3
 10
120.7251805418237
 20
487.5814781754052
 30
0
 11
103.0340846972904
 21
487.5814781754052
 31
0
  0
LINE
  8
1
 62
3
 10
112.6013979859417
 20
454.4242424241822
 30
0
 11
120.7251805418237
 21
487.5814781754052
 31
0
  0
LINE
  8
1
 62
3
 10
107.3662052920627
 20
454.4242424241822
 30
0
 11
112.6013979859417
 21
454.4242424241822
 31
0
  0
LINE
  8
1
 62
3
 10
114.1350202737522
 20
482.0511751450792
 30
0
 11
107.3662052920627
 21
454.4242424241822
 31
0
  0
LINE
  8
1
 62
3
 10
107.8527890410551
 20
482.0511751450792
 30
0
 11
114.1350202737522
 21
482.0511751450792
 31
0
  0
LINE
  8
1
 62
3
 10
100
 20
450.0000000000002
 30
0
 11
107.8527890410551
 21
482.0511751450792
 31
0
  0
LINE
  8
1
 62
3
 10
235.1196812335148
 20
456.1939393939101
 30
0
 11
244.1648417396059
 21
493.1117812056623
 31
0
  0
LINE
  8
1
 62
3
 10
244.1648417396059
 20
493.1117812056623
 30
0
 11
238.301425922338
 21
493.1117812056623
 31
0
  0
LINE
  8
1
 62
3
 10
238.301425922338
 20
493.1117812056623
 30
0
 11
227.7387017333971
 21
450.0000000000002
 31
0
  0
LINE
  8
1
 62
3
 10
245.6430607469671
 20
482.0511751450792
 30
0
 11
239.958219824279
 21
458.8484848484773
 31
0
  0
LINE
  8
1
 62
3
 10
239.958219824279
 20
458.8484848484773
 30
0
 11
255.6637979062
 21
458.8484848484773
 31
0
  0
LINE
  8
1
 62
3
 10
255.6637979062
 20
458.8484848484773
 30
0
 11
261.3486388288079
 21
482.0511751450792
 31
0
  0
LINE
  8
1
 62
3
 10
261.3486388288079
 20
482.0511751450792
 30
0
 11
256.1134461348851
 21
482.0511751450792
 31
0
  0
LINE
  8
1
 62
3
 10
256.1134461348851
 20
482.0511751450792
 30
0
 11
251.5125792714898
 21
463.2727272727973
 31
0
  0
LINE
  8
1
 62
3
 10
251.5125792714898
 20
463.2727272727973
 30
0
 11
246.277386577538
 21
463.2727272727973
 31
0
  0
LINE
  8
1
 62
3
 10
246.277386577538
 20
463.2727272727973
 30
0
 11
250.878253440889
 21
482.0511751450792
 31
0
  0
LINE
  8
1
 62
3
 10
250.878253440889
 20
482.0511751450792
 30
0
 11
245.6430607469671
 21
482.0511751450792
 31
0
  0
LINE
  8
1
 62
3
 10
267.9069775849489
 20
482.0511751450792
 30
0
 11
263.861531321934
 21
482.0511751450792
 31
0
  0
LINE
  8
1
 62
3
 10
263.861531321934
 20
482.0511751450792
 30
0
 11
267.9838268441308
 21
471.4153012186612
 31
0
  0
LINE
  8
1
 62
3
 10
267.9838268441308
 20
471.4153012186612
 30
0
 11
258.1766903993408
 21
458.8484848484773
 31
0
  0
LINE
  8
1
 62
3
 10
258.1766903993408
 20
458.8484848484773
 30
0
 11
262.222136662338
 21
458.8484848484773
 31
0
  0
LINE
  8
1
 62
3
 10
262.222136662338
 20
458.8484848484773
 30
0
 11
269.3262692424398
 21
467.9516853705022
 31
0
  0
LINE
  8
1
 62
3
 10
269.3262692424398
 20
467.9516853705022
 30
0
 11
272.854524937124
 21
458.8484848484773
 31
0
  0
LINE
  8
1
 62
3
 10
272.854524937124
 20
458.8484848484773
 30
0
 11
276.8999712001719
 21
458.8484848484773
 31
0
  0
LINE
  8
1
 62
3
 10
276.8999712001719
 20
458.8484848484773
 30
0
 11
272.0292731071679
 21
471.4153012186032
 31
0
  0
LINE
  8
1
 62
3
 10
272.0292731071679
 20
471.4153012186032
 30
0
 11
280.32950315225
 21
482.0511751450792
 31
0
  0
LINE
  8
1
 62
3
 10
280.32950315225
 20
482.0511751450792
 30
0
 11
276.284056889192
 21
482.0511751450792
 31
0
  0
LINE
  8
1
 62
3
 10
276.284056889192
 20
482.0511751450792
 30
0
 11
270.686830708906
 21
474.8789170668242
 31
0
  0
LINE
  8
1
 62
3
 10
270.686830708906
 20
474.8789170668242
 30
0
 11
267.9069775849489
 21
482.0511751450792
 31
0
  0
LINE
  8
1
 62
3
 10
277.928830785688
 20
456.1939393939101
 30
0
 11
280.3295031522068
 21
450.0000000000002
 31
0
  0
LINE
  8
1
 62
3
 10
277.928830785688
 20
456.1939393939101
 30
0
 11
235.1196812335148
 21
456.1939393939101
 31
0
  0
LINE
  8
1
 62
3
 10
280.3295031522068
 20
450.0000000000002
 30
0
 11
227.7387017333971
 21
450.0000000000002
 31
0
  0
LINE
  8
1
 62
3
 10
136.7386876589662
 20
493.1117812056623
 30
0
 11
139.9906098364481
 21
506.3845084783202
 31
0
  0
LINE
  8
1
 62
3
 10
139.9906098364481
 20
506.3845084783202
 30
0
 11
152.5550723021661
 21
506.3845084783202
 31
0
  0
LINE
  8
1
 62
3
 10
152.5550723021661
 20
506.3845084783202
 30
0
 11
149.3031501244914
 21
493.1117812056623
 31
0
  0
LINE
  8
1
 62
3
 10
149.3031501244914
 20
493.1117812056623
 30
0
 11
136.7386876589662
 21
493.1117812056623
 31
0
  0
LINE
  8
1
 62
3
 10
147.7510600764872
 20
495.3239024177933
 30
0
 11
139.3747517661323
 21
495.3239024177933
 31
0
  0
LINE
  8
1
 62
3
 10
149.9190081949637
 20
504.1723872662692
 30
0
 11
147.7510600764872
 21
495.3239024177933
 31
0
  0
LINE
  8
1
 62
3
 10
141.5426998844741
 20
504.1723872662692
 30
0
 11
149.9190081949637
 21
504.1723872662692
 31
0
  0
LINE
  8
1
 62
3
 10
139.3747517661323
 20
495.3239024177933
 30
0
 11
141.5426998844741
 21
504.1723872662692
 31
0
  0
LINE
  8
1
 62
3
 10
155.0679647951583
 20
506.3845084783202
 30
0
 11
151.8160426176219
 21
493.1117812056623
 31
0
  0
LINE
  8
1
 62
3
 10
155.0679647951583
 20
506.3845084783202
 30
0
 11
167.6324272607379
 21
506.3845084783202
 31
0
  0
LINE
  8
1
 62
3
 10
167.6324272607379
 20
506.3845084783202
 30
0
 11
165.7649031508845
 21
498.7622048583321
 31
0
  0
LINE
  8
1
 62
3
 10
164.3805050832052
 20
493.1117812056623
 30
0
 11
162.2864280055654
 21
493.1117812056623
 31
0
  0
LINE
  8
1
 62
3
 10
162.2864280055654
 20
493.1117812056623
 30
0
 11
163.3704020649384
 21
497.5360236298443
 31
0
  0
LINE
  8
1
 62
3
 10
163.3704020649384
 20
497.5360236298443
 30
0
 11
154.9940937544088
 21
497.5360236298443
 31
0
  0
LINE
  8
1
 62
3
 10
155.5360807840007
 20
499.7481448420333
 30
0
 11
163.9123890943812
 21
499.7481448420333
 31
0
  0
LINE
  8
1
 62
3
 10
163.9123890943812
 20
499.7481448420333
 30
0
 11
164.996363153703
 21
504.1723872662692
 31
0
  0
LINE
  8
1
 62
3
 10
164.996363153703
 20
504.1723872662692
 30
0
 11
156.6200548431842
 21
504.1723872662692
 31
0
  0
LINE
  8
1
 62
3
 10
156.6200548431842
 20
504.1723872662692
 30
0
 11
155.5360807840007
 21
499.7481448420333
 31
0
  0
LINE
  8
1
 62
3
 10
165.3282234693179
 20
496.9798958107822
 30
0
 11
164.3805050832052
 21
493.1117812056623
 31
0
  0
LINE
  8
1
 62
3
 10
151.8160426176219
 20
493.1117812056623
 30
0
 11
153.9101196952979
 21
493.1117812056623
 31
0
  0
LINE
  8
1
 62
3
 10
153.9101196952979
 20
493.1117812056623
 30
0
 11
154.9940937544088
 21
497.5360236298443
 31
0
  0
LINE
  8
1
 62
3
 10
172.2393968314647
 20
506.3845084783202
 30
0
 11
170.1453197539013
 21
506.3845084783202
 31
0
  0
LINE
  8
1
 62
3
 10
170.1453197539013
 20
506.3845084783202
 30
0
 11
166.8933975763357
 21
493.1117812056623
 31
0
  0
LINE
  8
1
 62
3
 10
166.8933975763357
 20
493.1117812056623
 30
0
 11
168.9874746540554
 21
493.1117812056623
 31
0
  0
LINE
  8
1
 62
3
 10
168.9874746540554
 20
493.1117812056623
 30
0
 11
172.2393968314647
 21
506.3845084783202
 31
0
  0
LINE
  8
1
 62
3
 10
171.5003671470404
 20
493.1117812056623
 30
0
 11
174.7522893245841
 21
506.3845084783202
 31
0
  0
LINE
  8
1
 62
3
 10
174.7522893245841
 20
506.3845084783202
 30
0
 11
187.316751790175
 21
506.3845084783202
 31
0
  0
LINE
  8
1
 62
3
 10
187.316751790175
 20
506.3845084783202
 30
0
 11
186.1785790280479
 21
501.7390539328912
 31
0
  0
LINE
  8
1
 62
3
 10
184.0648296126527
 20
493.1117812056623
 30
0
 11
171.5003671470404
 21
493.1117812056623
 31
0
  0
LINE
  8
1
 62
3
 10
182.5127395646049
 20
495.3239024177933
 30
0
 11
174.1364312542755
 21
495.3239024177933
 31
0
  0
LINE
  8
1
 62
3
 10
184.6806876828998
 20
504.1723872662692
 30
0
 11
184.0845019505218
 21
501.7390539328912
 31
0
  0
LINE
  8
1
 62
3
 10
176.3043793726031
 20
504.1723872662692
 30
0
 11
184.6806876828998
 21
504.1723872662692
 31
0
  0
LINE
  8
1
 62
3
 10
174.1364312542755
 20
495.3239024177933
 30
0
 11
176.3043793726031
 21
504.1723872662692
 31
0
  0
LINE
  8
1
 62
3
 10
185.6907907014248
 20
499.7481448420333
 30
0
 11
179.4085594686188
 21
499.7481448420333
 31
0
  0
LINE
  8
1
 62
3
 10
185.6907907014248
 20
499.7481448420333
 30
0
 11
184.0648296126527
 21
493.1117812056623
 31
0
  0
LINE
  8
1
 62
3
 10
179.4085594686188
 20
499.7481448420333
 30
0
 11
178.8665724389716
 21
497.5360236298443
 31
0
  0
LINE
  8
1
 62
3
 10
178.8665724389716
 20
497.5360236298443
 30
0
 11
183.0547265943719
 21
497.5360236298443
 31
0
  0
LINE
  8
1
 62
3
 10
183.0547265943719
 20
497.5360236298443
 30
0
 11
182.5127395646049
 21
495.3239024177933
 31
0
  0
LINE
  8
1
 62
3
 10
184.0845019505218
 20
501.7390539328912
 30
0
 11
186.1785790280479
 21
501.7390539328912
 31
0
  0
LINE
  8
1
 62
3
 10
186.5777221057689
 20
493.1117812056623
 30
0
 11
188.671799183329
 21
493.1117812056623
 31
0
  0
LINE
  8
1
 62
3
 10
188.671799183329
 20
493.1117812056623
 30
0
 11
191.9237213608982
 21
506.3845084783202
 31
0
  0
LINE
  8
1
 62
3
 10
189.8296442833339
 20
506.3845084783202
 30
0
 11
186.5777221057689
 21
493.1117812056623
 31
0
  0
LINE
  8
1
 62
3
 10
191.9237213608982
 20
506.3845084783202
 30
0
 11
189.8296442833339
 21
506.3845084783202
 31
0
  0
LINE
  8
1
 62
3
 10
191.1846916764989
 20
493.1117812056623
 30
0
 11
194.4366138540139
 21
506.3845084783202
 31
0
  0
LINE
  8
1
 62
3
 10
194.4366138540139
 20
506.3845084783202
 30
0
 11
197.5777294703548
 21
506.3845084783202
 31
0
  0
LINE
  8
1
 62
3
 10
197.5777294703548
 20
506.3845084783202
 30
0
 11
202.0615673366299
 21
494.7708721147462
 31
0
  0
LINE
  8
1
 62
3
 10
202.0615673366299
 20
494.7708721147462
 30
0
 11
204.9069992419828
 21
506.3845084783202
 31
0
  0
LINE
  8
1
 62
3
 10
204.9069992419828
 20
506.3845084783202
 30
0
 11
207.0010763195969
 21
506.3845084783202
 31
0
  0
LINE
  8
1
 62
3
 10
207.0010763195969
 20
506.3845084783202
 30
0
 11
203.7491541419769
 21
493.1117812056623
 31
0
  0
LINE
  8
1
 62
3
 10
203.7491541419769
 20
493.1117812056623
 30
0
 11
200.5064756532079
 21
493.1117812056623
 31
0
  0
LINE
  8
1
 62
3
 10
200.5064756532079
 20
493.1117812056623
 30
0
 11
196.7253193174979
 21
502.9053946295353
 31
0
  0
LINE
  8
1
 62
3
 10
196.7253193174979
 20
502.9053946295353
 30
0
 11
196.0847710509879
 21
504.5644855385981
 31
0
  0
LINE
  8
1
 62
3
 10
196.0847710509879
 20
504.5644855385981
 30
0
 11
193.2787687540589
 21
493.1117812056623
 31
0
  0
LINE
  8
1
 62
3
 10
193.2787687540589
 20
493.1117812056623
 30
0
 11
191.1846916764989
 21
493.1117812056623
 31
0
  0
LINE
  8
1
 62
3
 10
206.2620466350928
 20
493.1117812056623
 30
0
 11
213.7734769139901
 21
506.3845084783202
 31
0
  0
LINE
  8
1
 62
3
 10
213.7734769139901
 20
506.3845084783202
 30
0
 11
217.818923176965
 21
506.3845084783202
 31
0
  0
LINE
  8
1
 62
3
 10
217.818923176965
 20
506.3845084783202
 30
0
 11
218.826509100727
 21
493.1117812056623
 31
0
  0
LINE
  8
1
 62
3
 10
218.826509100727
 20
493.1117812056623
 30
0
 11
216.7968269376579
 21
493.1117812056623
 31
0
  0
LINE
  8
1
 62
3
 10
216.7968269376579
 20
493.1117812056623
 30
0
 11
216.628895950391
 21
495.3239024177933
 31
0
  0
LINE
  8
1
 62
3
 10
216.628895950391
 20
495.3239024177933
 30
0
 11
209.892748670027
 21
495.3239024177933
 31
0
  0
LINE
  8
1
 62
3
 10
209.892748670027
 20
495.3239024177933
 30
0
 11
208.6408436236637
 21
493.1117812056623
 31
0
  0
LINE
  8
1
 62
3
 10
208.6408436236637
 20
493.1117812056623
 30
0
 11
206.2620466350928
 21
493.1117812056623
 31
0
  0
LINE
  8
1
 62
3
 10
211.1446537165581
 20
497.5360236298443
 30
0
 11
216.4609649630688
 21
497.5360236298443
 31
0
  0
LINE
  8
1
 62
3
 10
216.4609649630688
 20
497.5360236298443
 30
0
 11
215.957172001214
 21
504.1723872662692
 31
0
  0
LINE
  8
1
 62
3
 10
215.957172001214
 20
504.1723872662692
 30
0
 11
214.9003688559237
 21
504.1723872662692
 31
0
  0
LINE
  8
1
 62
3
 10
211.1446537165581
 20
497.5360236298443
 30
0
 11
214.9003688559237
 21
504.1723872662692
 31
0
  0
LINE
  8
1
 62
3
 10
224.591323771416
 20
506.3845084783202
 30
0
 11
221.339401593847
 21
493.1117812056623
 31
0
  0
LINE
  8
1
 62
3
 10
221.339401593847
 20
493.1117812056623
 30
0
 11
233.9038640594258
 21
493.1117812056623
 31
0
  0
LINE
  8
1
 62
3
 10
233.9038640594258
 20
493.1117812056623
 30
0
 11
234.445851089087
 21
495.3239024177933
 31
0
  0
LINE
  8
1
 62
3
 10
234.445851089087
 20
495.3239024177933
 30
0
 11
223.9754657010669
 21
495.3239024177933
 31
0
  0
LINE
  8
1
 62
3
 10
223.9754657010669
 20
495.3239024177933
 30
0
 11
226.68540084903
 21
506.3845084783202
 31
0
  0
LINE
  8
1
 62
3
 10
226.68540084903
 20
506.3845084783202
 30
0
 11
224.591323771416
 21
506.3845084783202
 31
0
  0
LINE
  8
1
 62
3
 10
271.206636135699
 20
500.2001112138421
 30
0
 11
271.206636135699
 21
497.4510557882823
 31
0
  0
LINE
  8
1
 62
3
 10
270.3341884365839
 20
497.4510557882823
 30
0
 11
270.3341884365839
 21
504.3095239634563
 31
0
  0
LINE
  8
1
 62
3
 10
270.3341884365839
 20
504.3095239634563
 30
0
 11
272.776108295824
 21
504.3095239634563
 31
0
  0
LINE
  8
1
 62
3
 10
272.776108295824
 20
504.3095239634563
 30
0
 11
273.0724648781759
 21
504.3095239634563
 31
0
  0
LINE
  8
1
 62
3
 10
274.9060993927419
 20
499.3306895546261
 30
0
 11
274.9060993927419
 21
497.4510557882823
 31
0
  0
LINE
  8
1
 62
3
 10
274.9060993927419
 20
497.4510557882823
 30
0
 11
273.9449125772369
 21
497.4510557882823
 31
0
  0
LINE
  8
1
 62
3
 10
273.9449125772369
 20
497.4510557882823
 30
0
 11
273.9449125772369
 21
499.0729110559003
 31
0
  0
LINE
  8
1
 62
3
 10
272.9316978373171
 20
500.2001112138421
 30
0
 11
271.206636135699
 21
500.2001112138421
 31
0
  0
LINE
  8
1
 62
3
 10
271.206636135699
 20
497.4510557882823
 30
0
 11
270.3341884365839
 21
497.4510557882823
 31
0
  0
LINE
  8
1
 62
3
 10
271.206636135699
 20
501.0503345412762
 30
0
 11
273.194119363641
 21
501.0503345412762
 31
0
  0
LINE
  8
1
 62
3
 10
273.062609127785
 20
503.5059925312783
 30
0
 11
271.206636135699
 21
503.5059925312783
 31
0
  0
LINE
  8
1
 62
3
 10
271.206636135699
 20
503.5059925312783
 30
0
 11
271.206636135699
 21
501.0503345412762
 31
0
  0
ARC
  8
1
 62
3
 10
272.942694069316
 20
502.3039199213813
 30
0
 40
2.00979800886147
 50
304.0700115354193
 51
86.29788871826347
  0
ARC
  8
1
 62
3
 10
272.8643762433019
 20
502.2640259305513
 30
0
 40
1.257687287767352
 50
285.1995809529415
 51
80.9313952387881
  0
ARC
  8
1
 62
3
 10
272.789193605106
 20
499.0530393898223
 30
0
 40
1.155889798231656
 50
0.985058170487978
 51
82.91825463292646
  0
ARC
  8
1
 62
3
 10
273.514586791596
 20
499.3622336822261
 30
0
 40
1.39187009132817
 50
358.7013873342734
 51
66.54486649405598
  0
CIRCLE
  8
1
 62
3
 10
272.735875237937
 20
500.8787878787553
 30
0
 40
5.972862778753957
  0
CIRCLE
  8
1
 62
3
 10
272.735875237937
 20
500.8787878787553
 30
0
 40
5.53012798969587
  0
ENDBLK
  8
0
  0
BLOCK
  8
0
  2
WANNE_CORDOBA_FIVE_TREND_871
 70
0
 10
450
 20
450
 30
0
  0
LINE
  8
1
 62
7
 10
437
 20
0
 30
0
 11
900
 21
463
 31
0
  0
LINE
  8
MITTELLINIEN
 62
3
  6
DASHDOT
 10
750
 20
863.9899549999971
 30
0
 11
750
 21
674.321981000001
 31
0
  0
LINE
  8
MITTELLINIEN
 62
3
  6
DASHDOT
 10
843.989955
 20
770
 30
0
 11
654.3219810000001
 21
770
 31
0
  0
LINE
  8
1
 62
7
 10
900
 20
900
 30
0
 11
900
 21
463
 31
0
  0
LINE
  8
1
 62
7
 10
0
 20
0
 30
0
 11
0
 21
900
 31
0
  0
LINE
  8
1
 62
7
 10
0
 20
0
 30
0
 11
437
 21
0
 31
0
  0
LINE
  8
1
 62
7
 10
0
 20
900
 30
0
 11
900
 21
900
 31
0
  0
LINE
  8
1
 62
7
 10
419.4695167279506
 20
67.32233047033606
 30
0
 11
832.6776695296639
 21
480.530483272049
 31
0
  0
LINE
  8
1
 62
7
 10
840
 20
835
 30
0
 11
840
 21
498.2081528017129
 31
0
  0
LINE
  8
1
 62
7
 10
65
 20
60
 30
0
 11
401.7918471982869
 21
60
 31
0
  0
LINE
  8
1
 62
7
 10
40
 20
85
 30
0
 11
40
 21
835
 31
0
  0
LINE
  8
1
 62
7
 10
65
 20
860
 30
0
 11
815
 21
860
 31
0
  0
CIRCLE
  8
GEOMETRIE
 62
7
 10
750
 20
770
 30
0
 40
75.67802000000006
  0
CIRCLE
  8
GEOMETRIE
 62
7
 10
750
 20
770
 30
0
 40
68.39577899999995
  0
CIRCLE
  8
GEOMETRIE
 62
7
 10
750
 20
770
 30
0
 40
54.96428900000001
  0
CIRCLE
  8
GEOMETRIE
 62
7
 10
750
 20
770
 30
0
 40
45
  0
ARC
  8
1
 62
7
 10
815
 20
835
 30
0
 40
25
 50
0
 51
90
  0
ARC
  8
1
 62
7
 10
815
 20
498.2081528017129
 30
0
 40
25.00000000000032
 50
315.0000000000001
 51
0
  0
ARC
  8
1
 62
7
 10
401.7918471982869
 20
85
 30
0
 40
25
 50
270
 51
314.9999999999996
  0
ARC
  8
1
 62
7
 10
65
 20
85
 30
0
 40
25
 50
180
 51
270
  0
ARC
  8
1
 62
7
 10
65
 20
835
 30
0
 40
25
 50
90
 51
180
  0
ENDBLK
  8
0
  0
ENDSEC
  0
SECTION
  2
ENTITIES
  0
TEXT
  8
1
 62
2
 10
100
 20
375.0000000000002
 30
0
 40
35
  1
CORDOBA Five Trend 871
 41
0.5993999999999999
  0
TEXT
  8
1
 62
3
 10
591.0840000000001
 20
660
 30
0
 40
35
  1
Ö 90
 41
0.5993999999999999
 72
2
 73
3
 11
675
 21
695
 31
0
  0
INSERT
  8
0
  2
DLX
 10
100
 20
450.0000000000002
 30
0
  0
INSERT
  8
0
  2
WANNE_CORDOBA_FIVE_TREND_871
 10
450
 20
450
 30
0
  0
ENDSEC
  0
EOF
