  0
SECTION
  2
HEADER
  9
$ACADVER
  1
AC1009
  9
$INSBASE
 10
0
 20
0
  9
$EXTMIN
 10
0
 20
0
  9
$EXTMAX
 10
900.0000000000009
 20
230
  9
$LIMMIN
 10
0
 20
0
  9
$LIMMAX
 10
900.0000000000009
 20
230
  9
$VIEWCTR
 10
10
 20
10
  9
$VIEWSIZE
 40
10
  9
$SNAPMODE
 70
0
  9
$SNAPUNIT
 10
1
 20
1
  9
$SNAPBASE
 10
0
 20
0
  9
$SNAPANG
 50
0
  9
$SNAPSTYLE
 70
0
  9
$SNAPISOPAIR
 70
0
  9
$GRIDMODE
 70
0
  9
$GRIDUNIT
 10
0
 20
0
  9
$ORTHOMODE
 70
0
  9
$REGENMODE
 70
1
  9
$FILLMODE
 70
1
  9
$QTEXTMODE
 70
0
  9
$DRAGMODE
 70
2
  9
$LTSCALE
 40
1
  9
$OSMODE
 70
0
  9
$ATTMODE
 70
1
  9
$TEXTSIZE
 40
3.5
  9
$TRACEWID
 40
0.5
  9
$TEXTSTYLE
  7
STANDARD
  9
$CLAYER
  8
0
  9
$CELTYPE
  6
BYLAYER
  9
$CECOLOR
 62
256
  9
$DIMSCALE
 40
1
  9
$DIMASZ
 40
0.18
  9
$DIMEXO
 40
0.0625
  9
$DIMDLI
 40
0.38
  9
$DIMRND
 40
0
  9
$DIMDLE
 40
0
  9
$DIMEXE
 40
0.18
  9
$DIMTP
 40
0
  9
$DIMTM
 40
0
  9
$DIMTXT
 40
0.18
  9
$DIMCEN
 40
0.09
  9
$DIMTSZ
 40
0
  9
$DIMTOL
 70
0
  9
$DIMLIM
 70
0
  9
$DIMTIH
 70
1
  9
$DIMTOH
 70
1
  9
$DIMSE1
 70
0
  9
$DIMSE2
 70
0
  9
$DIMTAD
 70
0
  9
$DIMZIN
 70
0
  9
$DIMBLK
  1

  9
$DIMASO
 70
1
  9
$DIMSHO
 70
1
  9
$DIMPOST
  1

  9
$DIMAPOST
  1

  9
$DIMALT
 70
0
  9
$DIMALTD
 70
2
  9
$DIMALTF
 40
25.4
  9
$DIMLFAC
 40
1
  9
$DIMTOFL
 70
0
  9
$DIMTVP
 40
0
  9
$DIMTIX
 70
0
  9
$DIMSOXD
 70
0
  9
$DIMSAH
 70
0
  9
$DIMBLK1
  1

  9
$DIMBLK2
  1

  9
$DIMSTYLE
  2
*UNNAMED
  9
$DIMCLRD
 70
0
  9
$DIMCLRE
 70
0
  9
$DIMCLRT
 70
0
  9
$DIMTFAC
 40
1
  9
$DIMGAP
 40
0.09
  9
$LUNITS
 70
2
  9
$LUPREC
 70
4
  9
$AXISMODE
 70
0
  9
$AXISUNIT
 10
0
 20
0
  9
$SKETCHINC
 40
0.1
  9
$FILLETRAD
 40
2
  9
$AUNITS
 70
0
  9
$AUPREC
 70
0
  9
$MENU
  1
ACAD
  9
$ELEVATION
 40
0
  9
$THICKNESS
 40
0
  9
$VIEWDIR
 10
0
 20
0
 30
1
  9
$LIMCHECK
 70
0
  9
$BLIPMODE
 70
1
  9
$CHAMFERA
 40
0
  9
$CHAMFERB
 40
0
  9
$FASTZOOM
 70
1
  9
$SKPOLY
 70
0
  9
$ANGBASE
 50
0
  9
$ANGDIR
 70
0
  9
$PDMODE
 70
0
  9
$PDSIZE
 40
0
  9
$PLINEWID
 40
0
  9
$COORDS
 70
2
  0
ENDSEC
  0
SECTION
  2
TABLES
  0
TABLE
  2
DIMSTYLE
 70
0
  0
ENDTAB
  0
TABLE
  2
LTYPE
 70
9
  0
LTYPE
  2
CONTINUOUS
 70
64
  3
Solid line
 72
65
 73
0
 40
0
  0
LTYPE
  2
BORDER
 70
64
  3
__ __ . __ __ .
 72
65
 73
6
 40
41.44736842105267
 49
11.84210526315791
 49
-5.921052631578953
 49
11.84210526315791
 49
-5.921052631578953
 49
0
 49
-5.921052631578953
  0
LTYPE
  2
CENTER
 70
64
  3
____ _ ____ _
 72
65
 73
4
 40
47.36842105263163
 49
29.60526315789477
 49
-5.921052631578953
 49
5.921052631578953
 49
-5.921052631578953
  0
LTYPE
  2
DASHDOT
 70
64
  3
__ . __ . __ .
 72
65
 73
4
 40
23.68421052631581
 49
11.84210526315791
 49
-5.921052631578953
 49
0
 49
-5.921052631578953
  0
LTYPE
  2
DASHED
 70
64
  3
__ __ __ __ __
 72
65
 73
2
 40
17.76315789473686
 49
11.84210526315791
 49
-5.921052631578953
  0
LTYPE
  2
DIVIDE
 70
64
  3
__ . . __ . . 
 72
65
 73
6
 40
29.60526315789477
 49
11.84210526315791
 49
-5.921052631578953
 49
0
 49
-5.921052631578953
 49
0
 49
-5.921052631578953
  0
LTYPE
  2
DOT
 70
64
  3
..............
 72
65
 73
4
 40
11.84210526315791
 49
0
 49
-5.921052631578953
 49
0
 49
-5.921052631578953
  0
LTYPE
  2
HIDDEN
 70
64
  3
_ _ _ _ _ _ _
 72
65
 73
2
 40
8.88157894736843
 49
5.921052631578953
 49
-2.960526315789477
  0
LTYPE
  2
PHANTOM
 70
64
  3
_____ _ _ _____ _ _ 
 72
65
 73
6
 40
59.21052631578953
 49
29.60526315789477
 49
-5.921052631578953
 49
5.921052631578953
 49
-5.921052631578953
 49
5.921052631578953
 49
-5.921052631578953
  0
ENDTAB
  0
TABLE
  2
LAYER
 70
3
  0
LAYER
  2
1
 70
0
 62
7
  6
CONTINUOUS
  0
LAYER
  2
0
 70
0
 62
7
  6
CONTINUOUS
  0
ENDTAB
  0
TABLE
  2
STYLE
 70
4
  0
STYLE
  2
STANDARD
 70
0
 40
0
 41
1
 50
0
 71
0
 42
3.5
  3
txt
  4

  0
STYLE
  2
SIMPLEX
 70
0
 40
0
 41
1
 50
0
 71
0
 42
3.5
  3
simplex
  4

  0
STYLE
  2
COMPLEX
 70
0
 40
0
 41
1
 50
0
 71
0
 42
3.5
  3
complex
  4

  0
STYLE
  2
ITALIC
 70
0
 40
0
 41
1
 50
0
 71
0
 42
3.5
  3
italic
  4

  0
ENDTAB
  0
TABLE
  2
VIEW
 70
0
  0
ENDTAB
  0
ENDSEC
  0
SECTION
  2
BLOCKS
  0
BLOCK
  8
0
  2
DLX
 70
0
 10
250
 20
25
 30
0
  0
LINE
  8
1
 62
3
 10
315.3282234693179
 20
71.97989581078201
 30
0
 11
315.0328203819372
 21
72.97844787236301
 31
0
  0
LINE
  8
1
 62
3
 10
315.7649031508845
 20
73.76220485833193
 30
0
 11
315.0328203819372
 21
72.97844787236301
 31
0
  0
LINE
  8
1
 62
3
 10
350.7959271195539
 20
43.23770878452712
 30
0
 11
354.1803346104349
 21
57.05117514507901
 31
0
  0
LINE
  8
1
 62
3
 10
346.6077729643149
 20
43.23770878452712
 30
0
 11
349.9921804553309
 21
57.05117514507901
 31
0
  0
LINE
  8
1
 62
3
 10
346.6077729643149
 20
43.23770878452712
 30
0
 11
350.7959271195539
 21
43.23770878452712
 31
0
  0
LINE
  8
1
 62
3
 10
345.5237989051459
 20
38.81346636034101
 30
0
 11
349.7119530603339
 21
38.81346636034101
 31
0
  0
LINE
  8
1
 62
3
 10
346.3275455694389
 20
25
 30
0
 11
352.6097768023359
 21
25
 31
0
  0
LINE
  8
1
 62
3
 10
349.9921804553309
 20
57.05117514507901
 30
0
 11
343.709949222466
 21
57.05117514507901
 31
0
  0
LINE
  8
1
 62
3
 10
381.4033366192889
 20
57.05117514507901
 30
0
 11
373.5505475782701
 21
25
 31
0
  0
LINE
  8
1
 62
3
 10
374.0371313272921
 20
52.62693272083908
 30
0
 11
368.3522904045677
 21
29.42424242418201
 31
0
  0
LINE
  8
1
 62
3
 10
369.8489771720418
 20
52.62693272083908
 30
0
 11
374.0371313272921
 21
52.62693272083908
 31
0
  0
LINE
  8
1
 62
3
 10
381.4033366192889
 20
57.05117514507901
 30
0
 11
364.6507199984591
 21
57.05117514507901
 31
0
  0
LINE
  8
1
 62
3
 10
364.164136249467
 20
29.42424242418201
 30
0
 11
369.8489771720418
 21
52.62693272083908
 31
0
  0
LINE
  8
1
 62
3
 10
364.6507199984591
 20
57.05117514507901
 30
0
 11
356.797930957462
 21
25
 31
0
  0
LINE
  8
1
 62
3
 10
368.3522904045677
 20
29.42424242418201
 30
0
 11
364.164136249467
 21
29.42424242418201
 31
0
  0
LINE
  8
1
 62
3
 10
356.797930957462
 20
25
 30
0
 11
373.5505475782701
 21
25
 31
0
  0
LINE
  8
1
 62
3
 10
360.4625658433507
 20
57.05117514507901
 30
0
 11
354.1803346104349
 21
57.05117514507901
 31
0
  0
LINE
  8
1
 62
3
 10
343.709949222466
 20
57.05117514507901
 30
0
 11
335.857160181473
 21
25
 31
0
  0
LINE
  8
1
 62
3
 10
342.1393914142609
 20
25
 30
0
 11
345.5237989051459
 21
38.81346636034101
 31
0
  0
LINE
  8
1
 62
3
 10
346.3275455694389
 20
25
 30
0
 11
349.7119530603339
 21
38.81346636034101
 31
0
  0
LINE
  8
1
 62
3
 10
352.6097768023359
 20
25
 30
0
 11
360.4625658433507
 21
57.05117514507901
 31
0
  0
LINE
  8
1
 62
3
 10
335.857160181473
 20
25
 30
0
 11
342.1393914142609
 21
25
 31
0
  0
LINE
  8
1
 62
3
 10
330.5296286865158
 20
45.99056908441298
 30
0
 11
336.8118599193218
 21
45.99056908441298
 31
0
  0
LINE
  8
1
 62
3
 10
332.15558977531
 20
52.62693272083908
 30
0
 11
330.5296286865158
 21
45.99056908441298
 31
0
  0
LINE
  8
1
 62
3
 10
327.9674356201177
 20
52.62693272083908
 30
0
 11
332.15558977531
 21
52.62693272083908
 31
0
  0
LINE
  8
1
 62
3
 10
322.2825946974881
 20
29.42424242418201
 30
0
 11
327.9674356201177
 21
52.62693272083908
 31
0
  0
LINE
  8
1
 62
3
 10
326.4707488526909
 20
29.42424242418201
 30
0
 11
322.2825946974881
 21
29.42424242418201
 31
0
  0
LINE
  8
1
 62
3
 10
328.0967099414779
 20
36.06060606060811
 30
0
 11
326.4707488526909
 21
29.42424242418201
 31
0
  0
LINE
  8
1
 62
3
 10
334.3789411742661
 20
36.06060606060811
 30
0
 11
328.0967099414779
 21
36.06060606060811
 31
0
  0
LINE
  8
1
 62
3
 10
331.6690060262919
 20
25
 30
0
 11
334.3789411742661
 21
36.06060606060811
 31
0
  0
LINE
  8
1
 62
3
 10
314.9163894055382
 20
25
 30
0
 11
331.6690060262919
 21
25
 31
0
  0
LINE
  8
1
 62
3
 10
322.7691784465313
 20
57.05117514507901
 30
0
 11
314.9163894055382
 21
25
 31
0
  0
LINE
  8
1
 62
3
 10
339.5217950672519
 20
57.05117514507901
 30
0
 11
322.7691784465313
 21
57.05117514507901
 31
0
  0
LINE
  8
1
 62
3
 10
336.8118599193218
 20
45.99056908441298
 30
0
 11
339.5217950672519
 21
57.05117514507901
 31
0
  0
LINE
  8
1
 62
3
 10
317.4970502321556
 20
52.62693272083908
 30
0
 11
318.5810242913141
 21
57.05117514507901
 31
0
  0
LINE
  8
1
 62
3
 10
307.0266648441757
 20
52.62693272083908
 30
0
 11
317.4970502321556
 21
52.62693272083908
 31
0
  0
LINE
  8
1
 62
3
 10
304.5937460991627
 20
42.69696969695298
 30
0
 11
307.0266648441757
 21
52.62693272083908
 31
0
  0
LINE
  8
1
 62
3
 10
315.0641314872264
 20
42.69696969695298
 30
0
 11
304.5937460991627
 21
42.69696969695298
 31
0
  0
LINE
  8
1
 62
3
 10
310.7282352503024
 20
25
 30
0
 11
315.0641314872264
 21
42.69696969695298
 31
0
  0
LINE
  8
1
 62
3
 10
293.9756186294799
 20
25
 30
0
 11
310.7282352503024
 21
25
 31
0
  0
LINE
  8
1
 62
3
 10
295.0595926887872
 20
29.42424242418201
 30
0
 11
293.9756186294799
 21
25
 31
0
  0
LINE
  8
1
 62
3
 10
305.5299780766982
 20
29.42424242418201
 30
0
 11
295.0595926887872
 21
29.42424242418201
 31
0
  0
LINE
  8
1
 62
3
 10
307.6979261951166
 20
38.27272727279711
 30
0
 11
305.5299780766982
 21
29.42424242418201
 31
0
  0
LINE
  8
1
 62
3
 10
297.2275408071508
 20
38.27272727279711
 30
0
 11
307.6979261951166
 21
38.27272727279711
 31
0
  0
LINE
  8
1
 62
3
 10
301.8284076705422
 20
57.05117514507901
 30
0
 11
297.2275408071508
 21
38.27272727279711
 31
0
  0
LINE
  8
1
 62
3
 10
318.5810242913141
 20
57.05117514507901
 30
0
 11
301.8284076705422
 21
57.05117514507901
 31
0
  0
LINE
  8
1
 62
3
 10
297.6402535153793
 20
57.05117514507901
 30
0
 11
289.7874644743642
 21
25
 31
0
  0
LINE
  8
1
 62
3
 10
291.3580222825731
 20
57.05117514507901
 30
0
 11
297.6402535153793
 21
57.05117514507901
 31
0
  0
LINE
  8
1
 62
3
 10
289.7874644743642
 20
25
 30
0
 11
271.9878093147745
 21
25
 31
0
  0
LINE
  8
1
 62
3
 10
284.5892073007672
 20
29.42424242418201
 30
0
 11
291.3580222825731
 21
57.05117514507901
 31
0
  0
LINE
  8
1
 62
3
 10
279.3540146067826
 20
29.42424242418201
 30
0
 11
284.5892073007672
 21
29.42424242418201
 31
0
  0
LINE
  8
1
 62
3
 10
286.1228295885776
 20
57.05117514507901
 30
0
 11
279.3540146067826
 21
29.42424242418201
 31
0
  0
LINE
  8
1
 62
3
 10
279.8405983557677
 20
57.05117514507901
 30
0
 11
286.1228295885776
 21
57.05117514507901
 31
0
  0
LINE
  8
1
 62
3
 10
271.9878093147745
 20
25
 30
0
 11
279.8405983557677
 21
57.05117514507901
 31
0
  0
LINE
  8
1
 62
3
 10
267.799655159648
 20
25
 30
0
 11
250
 21
25
 31
0
  0
LINE
  8
1
 62
3
 10
278.3623793485676
 20
68.11178120566211
 30
0
 11
267.799655159648
 21
25
 31
0
  0
LINE
  8
1
 62
3
 10
254.3890522712754
 20
68.11178120566211
 30
0
 11
278.3623793485676
 21
68.11178120566211
 31
0
  0
LINE
  8
1
 62
3
 10
253.0340846972904
 20
62.58147817540498
 30
0
 11
254.3890522712754
 21
68.11178120566211
 31
0
  0
LINE
  8
1
 62
3
 10
270.7251805418237
 20
62.58147817540498
 30
0
 11
253.0340846972904
 21
62.58147817540498
 31
0
  0
LINE
  8
1
 62
3
 10
262.6013979859417
 20
29.42424242418201
 30
0
 11
270.7251805418237
 21
62.58147817540498
 31
0
  0
LINE
  8
1
 62
3
 10
257.3662052920627
 20
29.42424242418201
 30
0
 11
262.6013979859417
 21
29.42424242418201
 31
0
  0
LINE
  8
1
 62
3
 10
264.1350202737522
 20
57.05117514507901
 30
0
 11
257.3662052920627
 21
29.42424242418201
 31
0
  0
LINE
  8
1
 62
3
 10
257.8527890410551
 20
57.05117514507901
 30
0
 11
264.1350202737522
 21
57.05117514507901
 31
0
  0
LINE
  8
1
 62
3
 10
250
 20
25
 30
0
 11
257.8527890410551
 21
57.05117514507901
 31
0
  0
LINE
  8
1
 62
3
 10
385.1196812335148
 20
31.19393939390989
 30
0
 11
394.1648417396059
 21
68.11178120566211
 31
0
  0
LINE
  8
1
 62
3
 10
394.1648417396059
 20
68.11178120566211
 30
0
 11
388.301425922338
 21
68.11178120566211
 31
0
  0
LINE
  8
1
 62
3
 10
388.301425922338
 20
68.11178120566211
 30
0
 11
377.7387017333971
 21
25
 31
0
  0
LINE
  8
1
 62
3
 10
395.6430607469671
 20
57.05117514507901
 30
0
 11
389.958219824279
 21
33.84848484847709
 31
0
  0
LINE
  8
1
 62
3
 10
389.958219824279
 20
33.84848484847709
 30
0
 11
405.6637979062
 21
33.84848484847709
 31
0
  0
LINE
  8
1
 62
3
 10
405.6637979062
 20
33.84848484847709
 30
0
 11
411.3486388288079
 21
57.05117514507901
 31
0
  0
LINE
  8
1
 62
3
 10
411.3486388288079
 20
57.05117514507901
 30
0
 11
406.1134461348851
 21
57.05117514507901
 31
0
  0
LINE
  8
1
 62
3
 10
406.1134461348851
 20
57.05117514507901
 30
0
 11
401.5125792714898
 21
38.27272727279711
 31
0
  0
LINE
  8
1
 62
3
 10
401.5125792714898
 20
38.27272727279711
 30
0
 11
396.277386577538
 21
38.27272727279711
 31
0
  0
LINE
  8
1
 62
3
 10
396.277386577538
 20
38.27272727279711
 30
0
 11
400.878253440889
 21
57.05117514507901
 31
0
  0
LINE
  8
1
 62
3
 10
400.878253440889
 20
57.05117514507901
 30
0
 11
395.6430607469671
 21
57.05117514507901
 31
0
  0
LINE
  8
1
 62
3
 10
417.9069775849489
 20
57.05117514507901
 30
0
 11
413.861531321934
 21
57.05117514507901
 31
0
  0
LINE
  8
1
 62
3
 10
413.861531321934
 20
57.05117514507901
 30
0
 11
417.9838268441308
 21
46.415301218661
 31
0
  0
LINE
  8
1
 62
3
 10
417.9838268441308
 20
46.415301218661
 30
0
 11
408.1766903993408
 21
33.84848484847709
 31
0
  0
LINE
  8
1
 62
3
 10
408.1766903993408
 20
33.84848484847709
 30
0
 11
412.222136662338
 21
33.84848484847709
 31
0
  0
LINE
  8
1
 62
3
 10
412.222136662338
 20
33.84848484847709
 30
0
 11
419.3262692424398
 21
42.95168537050199
 31
0
  0
LINE
  8
1
 62
3
 10
419.3262692424398
 20
42.95168537050199
 30
0
 11
422.854524937124
 21
33.84848484847709
 31
0
  0
LINE
  8
1
 62
3
 10
422.854524937124
 20
33.84848484847709
 30
0
 11
426.8999712001719
 21
33.84848484847709
 31
0
  0
LINE
  8
1
 62
3
 10
426.8999712001719
 20
33.84848484847709
 30
0
 11
422.0292731071679
 21
46.41530121860302
 31
0
  0
LINE
  8
1
 62
3
 10
422.0292731071679
 20
46.41530121860302
 30
0
 11
430.32950315225
 21
57.05117514507901
 31
0
  0
LINE
  8
1
 62
3
 10
430.32950315225
 20
57.05117514507901
 30
0
 11
426.284056889192
 21
57.05117514507901
 31
0
  0
LINE
  8
1
 62
3
 10
426.284056889192
 20
57.05117514507901
 30
0
 11
420.686830708906
 21
49.87891706682399
 31
0
  0
LINE
  8
1
 62
3
 10
420.686830708906
 20
49.87891706682399
 30
0
 11
417.9069775849489
 21
57.05117514507901
 31
0
  0
LINE
  8
1
 62
3
 10
427.928830785688
 20
31.19393939390989
 30
0
 11
430.3295031522068
 21
25
 31
0
  0
LINE
  8
1
 62
3
 10
427.928830785688
 20
31.19393939390989
 30
0
 11
385.1196812335148
 21
31.19393939390989
 31
0
  0
LINE
  8
1
 62
3
 10
430.3295031522068
 20
25
 30
0
 11
377.7387017333971
 21
25
 31
0
  0
LINE
  8
1
 62
3
 10
286.7386876589662
 20
68.11178120566211
 30
0
 11
289.9906098364481
 21
81.38450847832002
 31
0
  0
LINE
  8
1
 62
3
 10
289.9906098364481
 20
81.38450847832002
 30
0
 11
302.5550723021661
 21
81.38450847832002
 31
0
  0
LINE
  8
1
 62
3
 10
302.5550723021661
 20
81.38450847832002
 30
0
 11
299.3031501244914
 21
68.11178120566211
 31
0
  0
LINE
  8
1
 62
3
 10
299.3031501244914
 20
68.11178120566211
 30
0
 11
286.7386876589662
 21
68.11178120566211
 31
0
  0
LINE
  8
1
 62
3
 10
297.7510600764872
 20
70.32390241779308
 30
0
 11
289.3747517661323
 21
70.32390241779308
 31
0
  0
LINE
  8
1
 62
3
 10
299.9190081949637
 20
79.17238726626903
 30
0
 11
297.7510600764872
 21
70.32390241779308
 31
0
  0
LINE
  8
1
 62
3
 10
291.5426998844741
 20
79.17238726626903
 30
0
 11
299.9190081949637
 21
79.17238726626903
 31
0
  0
LINE
  8
1
 62
3
 10
289.3747517661323
 20
70.32390241779308
 30
0
 11
291.5426998844741
 21
79.17238726626903
 31
0
  0
LINE
  8
1
 62
3
 10
305.0679647951583
 20
81.38450847832002
 30
0
 11
301.8160426176219
 21
68.11178120566211
 31
0
  0
LINE
  8
1
 62
3
 10
305.0679647951583
 20
81.38450847832002
 30
0
 11
317.6324272607379
 21
81.38450847832002
 31
0
  0
LINE
  8
1
 62
3
 10
317.6324272607379
 20
81.38450847832002
 30
0
 11
315.7649031508845
 21
73.76220485833193
 31
0
  0
LINE
  8
1
 62
3
 10
314.3805050832052
 20
68.11178120566211
 30
0
 11
312.2864280055654
 21
68.11178120566211
 31
0
  0
LINE
  8
1
 62
3
 10
312.2864280055654
 20
68.11178120566211
 30
0
 11
313.3704020649384
 21
72.53602362984412
 31
0
  0
LINE
  8
1
 62
3
 10
313.3704020649384
 20
72.53602362984412
 30
0
 11
304.9940937544088
 21
72.53602362984412
 31
0
  0
LINE
  8
1
 62
3
 10
305.5360807840007
 20
74.74814484203313
 30
0
 11
313.9123890943812
 21
74.74814484203313
 31
0
  0
LINE
  8
1
 62
3
 10
313.9123890943812
 20
74.74814484203313
 30
0
 11
314.996363153703
 21
79.17238726626903
 31
0
  0
LINE
  8
1
 62
3
 10
314.996363153703
 20
79.17238726626903
 30
0
 11
306.6200548431842
 21
79.17238726626903
 31
0
  0
LINE
  8
1
 62
3
 10
306.6200548431842
 20
79.17238726626903
 30
0
 11
305.5360807840007
 21
74.74814484203313
 31
0
  0
LINE
  8
1
 62
3
 10
315.3282234693179
 20
71.97989581078201
 30
0
 11
314.3805050832052
 21
68.11178120566211
 31
0
  0
LINE
  8
1
 62
3
 10
301.8160426176219
 20
68.11178120566211
 30
0
 11
303.9101196952979
 21
68.11178120566211
 31
0
  0
LINE
  8
1
 62
3
 10
303.9101196952979
 20
68.11178120566211
 30
0
 11
304.9940937544088
 21
72.53602362984412
 31
0
  0
LINE
  8
1
 62
3
 10
322.2393968314647
 20
81.38450847832002
 30
0
 11
320.1453197539013
 21
81.38450847832002
 31
0
  0
LINE
  8
1
 62
3
 10
320.1453197539013
 20
81.38450847832002
 30
0
 11
316.8933975763357
 21
68.11178120566211
 31
0
  0
LINE
  8
1
 62
3
 10
316.8933975763357
 20
68.11178120566211
 30
0
 11
318.9874746540554
 21
68.11178120566211
 31
0
  0
LINE
  8
1
 62
3
 10
318.9874746540554
 20
68.11178120566211
 30
0
 11
322.2393968314647
 21
81.38450847832002
 31
0
  0
LINE
  8
1
 62
3
 10
321.5003671470404
 20
68.11178120566211
 30
0
 11
324.7522893245841
 21
81.38450847832002
 31
0
  0
LINE
  8
1
 62
3
 10
324.7522893245841
 20
81.38450847832002
 30
0
 11
337.3167517901749
 21
81.38450847832002
 31
0
  0
LINE
  8
1
 62
3
 10
337.3167517901749
 20
81.38450847832002
 30
0
 11
336.1785790280479
 21
76.73905393289101
 31
0
  0
LINE
  8
1
 62
3
 10
334.0648296126527
 20
68.11178120566211
 30
0
 11
321.5003671470404
 21
68.11178120566211
 31
0
  0
LINE
  8
1
 62
3
 10
332.5127395646049
 20
70.32390241779308
 30
0
 11
324.1364312542755
 21
70.32390241779308
 31
0
  0
LINE
  8
1
 62
3
 10
334.6806876828999
 20
79.17238726626903
 30
0
 11
334.0845019505219
 21
76.73905393289101
 31
0
  0
LINE
  8
1
 62
3
 10
326.3043793726031
 20
79.17238726626903
 30
0
 11
334.6806876828999
 21
79.17238726626903
 31
0
  0
LINE
  8
1
 62
3
 10
324.1364312542755
 20
70.32390241779308
 30
0
 11
326.3043793726031
 21
79.17238726626903
 31
0
  0
LINE
  8
1
 62
3
 10
335.6907907014248
 20
74.74814484203313
 30
0
 11
329.4085594686188
 21
74.74814484203313
 31
0
  0
LINE
  8
1
 62
3
 10
335.6907907014248
 20
74.74814484203313
 30
0
 11
334.0648296126527
 21
68.11178120566211
 31
0
  0
LINE
  8
1
 62
3
 10
329.4085594686188
 20
74.74814484203313
 30
0
 11
328.8665724389717
 21
72.53602362984412
 31
0
  0
LINE
  8
1
 62
3
 10
328.8665724389717
 20
72.53602362984412
 30
0
 11
333.0547265943719
 21
72.53602362984412
 31
0
  0
LINE
  8
1
 62
3
 10
333.0547265943719
 20
72.53602362984412
 30
0
 11
332.5127395646049
 21
70.32390241779308
 31
0
  0
LINE
  8
1
 62
3
 10
334.0845019505219
 20
76.73905393289101
 30
0
 11
336.1785790280479
 21
76.73905393289101
 31
0
  0
LINE
  8
1
 62
3
 10
336.5777221057689
 20
68.11178120566211
 30
0
 11
338.671799183329
 21
68.11178120566211
 31
0
  0
LINE
  8
1
 62
3
 10
338.671799183329
 20
68.11178120566211
 30
0
 11
341.923721360898
 21
81.38450847832002
 31
0
  0
LINE
  8
1
 62
3
 10
339.8296442833339
 20
81.38450847832002
 30
0
 11
336.5777221057689
 21
68.11178120566211
 31
0
  0
LINE
  8
1
 62
3
 10
341.923721360898
 20
81.38450847832002
 30
0
 11
339.8296442833339
 21
81.38450847832002
 31
0
  0
LINE
  8
1
 62
3
 10
341.1846916764989
 20
68.11178120566211
 30
0
 11
344.4366138540139
 21
81.38450847832002
 31
0
  0
LINE
  8
1
 62
3
 10
344.4366138540139
 20
81.38450847832002
 30
0
 11
347.5777294703549
 21
81.38450847832002
 31
0
  0
LINE
  8
1
 62
3
 10
347.5777294703549
 20
81.38450847832002
 30
0
 11
352.0615673366299
 21
69.770872114746
 31
0
  0
LINE
  8
1
 62
3
 10
352.0615673366299
 20
69.770872114746
 30
0
 11
354.9069992419828
 21
81.38450847832002
 31
0
  0
LINE
  8
1
 62
3
 10
354.9069992419828
 20
81.38450847832002
 30
0
 11
357.0010763195969
 21
81.38450847832002
 31
0
  0
LINE
  8
1
 62
3
 10
357.0010763195969
 20
81.38450847832002
 30
0
 11
353.7491541419769
 21
68.11178120566211
 31
0
  0
LINE
  8
1
 62
3
 10
353.7491541419769
 20
68.11178120566211
 30
0
 11
350.5064756532079
 21
68.11178120566211
 31
0
  0
LINE
  8
1
 62
3
 10
350.5064756532079
 20
68.11178120566211
 30
0
 11
346.7253193174979
 21
77.90539462953512
 31
0
  0
LINE
  8
1
 62
3
 10
346.7253193174979
 20
77.90539462953512
 30
0
 11
346.0847710509879
 21
79.56448553859792
 31
0
  0
LINE
  8
1
 62
3
 10
346.0847710509879
 20
79.56448553859792
 30
0
 11
343.2787687540589
 21
68.11178120566211
 31
0
  0
LINE
  8
1
 62
3
 10
343.2787687540589
 20
68.11178120566211
 30
0
 11
341.1846916764989
 21
68.11178120566211
 31
0
  0
LINE
  8
1
 62
3
 10
356.2620466350928
 20
68.11178120566211
 30
0
 11
363.7734769139901
 21
81.38450847832002
 31
0
  0
LINE
  8
1
 62
3
 10
363.7734769139901
 20
81.38450847832002
 30
0
 11
367.818923176965
 21
81.38450847832002
 31
0
  0
LINE
  8
1
 62
3
 10
367.818923176965
 20
81.38450847832002
 30
0
 11
368.826509100727
 21
68.11178120566211
 31
0
  0
LINE
  8
1
 62
3
 10
368.826509100727
 20
68.11178120566211
 30
0
 11
366.7968269376579
 21
68.11178120566211
 31
0
  0
LINE
  8
1
 62
3
 10
366.7968269376579
 20
68.11178120566211
 30
0
 11
366.628895950391
 21
70.32390241779308
 31
0
  0
LINE
  8
1
 62
3
 10
366.628895950391
 20
70.32390241779308
 30
0
 11
359.892748670027
 21
70.32390241779308
 31
0
  0
LINE
  8
1
 62
3
 10
359.892748670027
 20
70.32390241779308
 30
0
 11
358.6408436236637
 21
68.11178120566211
 31
0
  0
LINE
  8
1
 62
3
 10
358.6408436236637
 20
68.11178120566211
 30
0
 11
356.2620466350928
 21
68.11178120566211
 31
0
  0
LINE
  8
1
 62
3
 10
361.1446537165581
 20
72.53602362984412
 30
0
 11
366.4609649630688
 21
72.53602362984412
 31
0
  0
LINE
  8
1
 62
3
 10
366.4609649630688
 20
72.53602362984412
 30
0
 11
365.957172001214
 21
79.17238726626903
 31
0
  0
LINE
  8
1
 62
3
 10
365.957172001214
 20
79.17238726626903
 30
0
 11
364.9003688559238
 21
79.17238726626903
 31
0
  0
LINE
  8
1
 62
3
 10
361.1446537165581
 20
72.53602362984412
 30
0
 11
364.9003688559238
 21
79.17238726626903
 31
0
  0
LINE
  8
1
 62
3
 10
374.591323771416
 20
81.38450847832002
 30
0
 11
371.339401593847
 21
68.11178120566211
 31
0
  0
LINE
  8
1
 62
3
 10
371.339401593847
 20
68.11178120566211
 30
0
 11
383.9038640594258
 21
68.11178120566211
 31
0
  0
LINE
  8
1
 62
3
 10
383.9038640594258
 20
68.11178120566211
 30
0
 11
384.445851089087
 21
70.32390241779308
 31
0
  0
LINE
  8
1
 62
3
 10
384.445851089087
 20
70.32390241779308
 30
0
 11
373.9754657010669
 21
70.32390241779308
 31
0
  0
LINE
  8
1
 62
3
 10
373.9754657010669
 20
70.32390241779308
 30
0
 11
376.68540084903
 21
81.38450847832002
 31
0
  0
LINE
  8
1
 62
3
 10
376.68540084903
 20
81.38450847832002
 30
0
 11
374.591323771416
 21
81.38450847832002
 31
0
  0
LINE
  8
1
 62
3
 10
421.206636135699
 20
75.20011121384192
 30
0
 11
421.206636135699
 21
72.45105578828208
 31
0
  0
LINE
  8
1
 62
3
 10
420.3341884365839
 20
72.45105578828208
 30
0
 11
420.3341884365839
 21
79.30952396345612
 31
0
  0
LINE
  8
1
 62
3
 10
420.3341884365839
 20
79.30952396345612
 30
0
 11
422.776108295824
 21
79.30952396345612
 31
0
  0
LINE
  8
1
 62
3
 10
422.776108295824
 20
79.30952396345612
 30
0
 11
423.0724648781759
 21
79.30952396345612
 31
0
  0
LINE
  8
1
 62
3
 10
424.9060993927419
 20
74.33068955462591
 30
0
 11
424.9060993927419
 21
72.45105578828208
 31
0
  0
LINE
  8
1
 62
3
 10
424.9060993927419
 20
72.45105578828208
 30
0
 11
423.9449125772369
 21
72.45105578828208
 31
0
  0
LINE
  8
1
 62
3
 10
423.9449125772369
 20
72.45105578828208
 30
0
 11
423.9449125772369
 21
74.07291105590008
 31
0
  0
LINE
  8
1
 62
3
 10
422.9316978373171
 20
75.20011121384192
 30
0
 11
421.206636135699
 21
75.20011121384192
 31
0
  0
LINE
  8
1
 62
3
 10
421.206636135699
 20
72.45105578828208
 30
0
 11
420.3341884365839
 21
72.45105578828208
 31
0
  0
LINE
  8
1
 62
3
 10
421.206636135699
 20
76.05033454127602
 30
0
 11
423.194119363641
 21
76.05033454127602
 31
0
  0
LINE
  8
1
 62
3
 10
423.062609127785
 20
78.50599253127808
 30
0
 11
421.206636135699
 21
78.50599253127808
 31
0
  0
LINE
  8
1
 62
3
 10
421.206636135699
 20
78.50599253127808
 30
0
 11
421.206636135699
 21
76.05033454127602
 31
0
  0
ARC
  8
1
 62
3
 10
422.942694069316
 20
77.30391992138112
 30
0
 40
2.009798008861517
 50
304.0700115354184
 51
86.29788871826347
  0
ARC
  8
1
 62
3
 10
422.8643762433019
 20
77.2640259305511
 30
0
 40
1.257687287767297
 50
285.1995809529421
 51
80.9313952387881
  0
ARC
  8
1
 62
3
 10
422.789193605106
 20
74.05303938982212
 30
0
 40
1.155889798231655
 50
0.9850581704851609
 51
82.91825463292646
  0
ARC
  8
1
 62
3
 10
423.514586791596
 20
74.36223368222591
 30
0
 40
1.39187009132817
 50
358.7013873342734
 51
66.54486649405504
  0
CIRCLE
  8
1
 62
3
 10
422.735875237937
 20
75.87878787875508
 30
0
 40
5.972862778753957
  0
CIRCLE
  8
1
 62
3
 10
422.735875237937
 20
75.87878787875508
 30
0
 40
5.530127989695927
  0
ENDBLK
  8
0
  0
BLOCK
  8
0
  2
WANNENF_SSE
 70
0
 10
-50
 20
0
 30
0
  0
LINE
  8
1
 62
2
 10
851.0000000000009
 20
25
 30
0
 11
881.0000000000009
 21
25
 31
0
  0
LINE
  8
1
 62
2
 10
856.0000000000009
 20
55
 30
0
 11
876.0000000000009
 21
55
 31
0
  0
LINE
  8
1
 62
2
 10
861.0000000000009
 20
85
 30
0
 11
871.0000000000009
 21
85
 31
0
  0
LINE
  8
1
 62
2
 10
851.0000000000009
 20
0
 30
0
 11
851.0000000000009
 21
25
 31
0
  0
LINE
  8
1
 62
2
 10
881.0000000000009
 20
0
 30
0
 11
881.0000000000009
 21
25
 31
0
  0
LINE
  8
1
 62
2
 10
876.0000000000009
 20
25
 30
0
 11
876.0000000000009
 21
55
 31
0
  0
LINE
  8
1
 62
2
 10
856.0000000000009
 20
25
 30
0
 11
856.0000000000009
 21
55
 31
0
  0
LINE
  8
1
 62
2
 10
856.0000000000009
 20
55
 30
0
 11
861.0000000000009
 21
85
 31
0
  0
LINE
  8
1
 62
2
 10
876.0000000000009
 20
55
 30
0
 11
871.0000000000009
 21
85
 31
0
  0
LINE
  8
1
 62
2
 10
861.0000000000009
 20
85
 30
0
 11
861.0000000000009
 21
135
 31
0
  0
LINE
  8
1
 62
2
 10
871.0000000000009
 20
85
 30
0
 11
871.0000000000009
 21
135
 31
0
  0
LINE
  8
1
 62
2
 10
609.0000000000009
 20
25
 30
0
 11
639.0000000000009
 21
25
 31
0
  0
LINE
  8
1
 62
2
 10
614.0000000000009
 20
55
 30
0
 11
634.0000000000009
 21
55
 31
0
  0
LINE
  8
1
 62
2
 10
619.0000000000009
 20
85
 30
0
 11
629.0000000000009
 21
85
 31
0
  0
LINE
  8
1
 62
2
 10
609.0000000000009
 20
0
 30
0
 11
609.0000000000009
 21
25
 31
0
  0
LINE
  8
1
 62
2
 10
639.0000000000009
 20
0
 30
0
 11
639.0000000000009
 21
25
 31
0
  0
LINE
  8
1
 62
2
 10
634.0000000000009
 20
25
 30
0
 11
634.0000000000009
 21
55
 31
0
  0
LINE
  8
1
 62
2
 10
614.0000000000009
 20
25
 30
0
 11
614.0000000000009
 21
55
 31
0
  0
LINE
  8
1
 62
2
 10
614.0000000000009
 20
55
 30
0
 11
619.0000000000009
 21
85
 31
0
  0
LINE
  8
1
 62
2
 10
634.0000000000009
 20
55
 30
0
 11
629.0000000000009
 21
85
 31
0
  0
LINE
  8
1
 62
2
 10
619.0000000000009
 20
85
 30
0
 11
619.0000000000009
 21
106.767666193683
 31
0
  0
LINE
  8
1
 62
2
 10
629.0000000000009
 20
85
 30
0
 11
629.0000000000009
 21
106.470873122631
 31
0
  0
LINE
  8
1
 62
2
 10
194
 20
25
 30
0
 11
224
 21
25
 31
0
  0
LINE
  8
1
 62
2
 10
199
 20
55
 30
0
 11
219
 21
55
 31
0
  0
LINE
  8
1
 62
2
 10
204
 20
85
 30
0
 11
214
 21
85
 31
0
  0
LINE
  8
1
 62
2
 10
194
 20
0
 30
0
 11
194
 21
25
 31
0
  0
LINE
  8
1
 62
2
 10
224
 20
0
 30
0
 11
224
 21
25
 31
0
  0
LINE
  8
1
 62
2
 10
219
 20
25
 30
0
 11
219
 21
55
 31
0
  0
LINE
  8
1
 62
2
 10
199
 20
25
 30
0
 11
199
 21
55
 31
0
  0
LINE
  8
1
 62
2
 10
199
 20
55
 30
0
 11
204
 21
85
 31
0
  0
LINE
  8
1
 62
2
 10
219
 20
55
 30
0
 11
214
 21
85
 31
0
  0
LINE
  8
1
 62
2
 10
204
 20
85
 30
0
 11
204
 21
119.0845786423311
 31
0
  0
LINE
  8
1
 62
2
 10
214
 20
85
 30
0
 11
214
 21
118.7877855712791
 31
0
  0
ENDBLK
  8
0
  0
BLOCK
  8
0
  2
WANNE_CORDOBA_FIVE_TREND_871
 70
0
 10
0
 20
230
 30
0
  0
LINE
  8
1
 62
7
 10
172.9952210000001
 20
120.0047790000001
 30
0
 11
157.5296075090128
 21
135.470392490987
 31
0
  0
LINE
  8
1
 62
7
 10
35.51777836151314
 20
168.934295987375
 30
0
 11
4.999999999995225
 21
170
 31
0
  0
LINE
  8
1
 62
7
 10
40.32425444206035
 20
164.3731202669339
 30
0
 11
41.39162052957101
 21
152.1730616701241
 31
0
  0
LINE
  8
1
 62
7
 10
678.7814209999931
 20
120
 30
0
 11
55.88954742275234
 21
138.4869990171319
 31
0
  0
LINE
  8
1
 62
7
 10
650.4380719999999
 20
105.8346059999999
 30
0
 11
172.9952210000001
 21
120.0047790000001
 31
0
  0
LINE
  8
1
 62
7
 10
650.4380719999999
 20
105.8346059999999
 30
0
 11
665.0121290000011
 21
120.4086629999999
 31
0
  0
LINE
  8
1
 62
7
 10
844.420932055255
 20
168.2337400019289
 30
0
 11
895.000000000013
 21
170
 31
0
  0
LINE
  8
1
 62
7
 10
839.614456059692
 20
163.6725646822861
 30
0
 11
836.9915539609719
 21
133.692663553906
 31
0
  0
LINE
  8
1
 62
7
 10
0
 20
135
 30
0
 11
0
 21
170
 31
0
  0
LINE
  8
1
 62
7
 10
900.0000000000009
 20
135
 30
0
 11
900.0000000000009
 21
170
 31
0
  0
LINE
  8
1
 62
7
 10
837.105931106297
 20
135
 30
0
 11
900.0000000000009
 21
135
 31
0
  0
LINE
  8
1
 62
7
 10
158
 20
135
 30
0
 11
0
 21
135
 31
0
  0
LINE
  8
1
 62
7
 10
0
 20
170
 30
0
 11
900.0000000000009
 21
170
 31
0
  0
LINE
  8
1
 62
7
 10
678.7814209999931
 20
120
 30
0
 11
822.04863351627
 21
120
 31
0
  0
LINE
  8
1
 62
7
 10
794.9999999999991
 20
100
 30
0
 11
818.835069999998
 21
120
 31
0
  0
LINE
  8
1
 62
7
 10
704.9999999999991
 20
100
 30
0
 11
794.9999999999991
 21
100
 31
0
  0
LINE
  8
1
 62
7
 10
704.9999999999991
 20
100
 30
0
 11
681.164929999997
 21
120
 31
0
  0
LINE
  8
1
 62
3
  6
DASHDOT
 10
750.0000000000009
 20
145
 30
0
 11
750.0000000000009
 21
75
 31
0
  0
ARC
  8
1
 62
7
 10
56.33454107901048
 20
153.4803969190721
 30
0
 40
15.00000000000008
 50
184.9999965787728
 51
268.3000000191778
  0
ARC
  8
1
 62
7
 10
35.34328092558053
 20
163.9373418506179
 30
0
 40
5.000000000000023
 50
4.999996578772757
 51
88.00000054555783
  0
ARC
  8
1
 62
7
 10
844.5954295412601
 20
163.2367858669211
 30
0
 40
4.999999999999362
 50
92.0000000285803
 51
174.999998830996
  0
ARC
  8
1
 62
7
 10
822.04863351627
 20
135
 30
0
 40
15
 50
270
 51
354.9999988309988
  0
INSERT
  8
0
  2
WANNENF_SSE
 10
-50
 20
0
 30
0
  0
ENDBLK
  8
0
  0
ENDSEC
  0
SECTION
  2
ENTITIES
  0
TEXT
  8
1
 62
2
 10
50
 20
195
 30
0
 40
35
  1
CORDOBA Five Trend 871
 41
0.5993999999999999
  0
TEXT
  8
1
 62
3
 10
666.084000000001
 20
30
 30
0
 40
35
  1
Ö 90
 41
0.5993999999999999
 72
2
 73
3
 11
750.0000000000009
 21
65
 31
0
  0
INSERT
  8
0
  2
DLX
 10
250
 20
25
 30
0
  0
INSERT
  8
0
  2
WANNE_CORDOBA_FIVE_TREND_871
 10
0
 20
230
 30
0
  0
ENDSEC
  0
EOF
