  0
SECTION
  2
HEADER
  9
$ACADVER
  1
AC1014
  9
$ACADMAINTVER
 70
           0
  9
$DWGCODEPAGE
  3
ANSI_1252
  9
$INSBASE
 10
0.0
 20
0.0
 30
0.0
  9
$EXTMIN
 10
1.000000000000E+20
 20
1.000000000000E+20
 30
1.000000000000E+20
  9
$EXTMAX
 10
-1.000000000000E+20
 20
-1.000000000000E+20
 30
-1.000000000000E+20
  9
$LIMMIN
 10
0.0
 20
0.0
  9
$LIMMAX
 10
0.0
 20
0.0
  9
$ORTHOMODE
 70
           0
  9
$REGENMODE
 70
           1
  9
$FILLMODE
 70
           1
  9
$QTEXTMODE
 70
           0
  9
$MIRRTEXT
 70
           1
  9
$DRAGMODE
 70
           2
  9
$LTSCALE
 40
1.0
  9
$OSMODE
 70
           0
  9
$ATTMODE
 70
           1
  9
$TEXTSIZE
 40
0.2
  9
$TRACEWID
 40
0.05
  9
$TEXTSTYLE
  7
STANDARD
  9
$CLAYER
  8
0
  9
$CELTYPE
  6
CONTINUOUS
  9
$CECOLOR
 62
         256
  9
$CELTSCALE
 40
1.0
  9
$DELOBJ
 70
           1
  9
$DISPSILH
 70
           0
  9
$DIMSCALE
 40
1.0
  9
$DIMASZ
 40
0.18
  9
$DIMEXO
 40
0.0625
  9
$DIMDLI
 40
0.38
  9
$DIMRND
 40
0.0
  9
$DIMDLE
 40
0.0
  9
$DIMEXE
 40
0.18
  9
$DIMTP
 40
0.0
  9
$DIMTM
 40
0.0
  9
$DIMTXT
 40
0.18
  9
$DIMCEN
 40
0.09
  9
$DIMTSZ
 40
0.0
  9
$DIMTOL
 70
           0
  9
$DIMLIM
 70
           0
  9
$DIMTIH
 70
           1
  9
$DIMTOH
 70
           1
  9
$DIMSE1
 70
           0
  9
$DIMSE2
 70
           0
  9
$DIMTAD
 70
           0
  9
$DIMZIN
 70
           0
  9
$DIMBLK
  1

  9
$DIMASO
 70
           1
  9
$DIMSHO
 70
           1
  9
$DIMPOST
  1

  9
$DIMAPOST
  1

  9
$DIMALT
 70
           0
  9
$DIMALTD
 70
           2
  9
$DIMALTF
 40
25.4
  9
$DIMLFAC
 40
1.0
  9
$DIMTOFL
 70
           0
  9
$DIMTVP
 40
0.0
  9
$DIMTIX
 70
           0
  9
$DIMSOXD
 70
           0
  9
$DIMSAH
 70
           0
  9
$DIMBLK1
  1

  9
$DIMBLK2
  1

  9
$DIMSTYLE
  2
STANDARD
  9
$DIMCLRD
 70
           0
  9
$DIMCLRE
 70
           0
  9
$DIMCLRT
 70
           0
  9
$DIMTFAC
 40
1.0
  9
$DIMGAP
 40
0.09
  9
$DIMJUST
 70
           0
  9
$DIMSD1
 70
           0
  9
$DIMSD2
 70
           0
  9
$DIMTOLJ
 70
           1
  9
$DIMTZIN
 70
           0
  9
$DIMALTZ
 70
           0
  9
$DIMALTTZ
 70
           0
  9
$DIMFIT
 70
           3
  9
$DIMUPT
 70
           0
  9
$DIMUNIT
 70
           2
  9
$DIMDEC
 70
           4
  9
$DIMTDEC
 70
           4
  9
$DIMALTU
 70
           2
  9
$DIMALTTD
 70
           2
  9
$DIMTXSTY
  7
STANDARD
  9
$DIMAUNIT
 70
           0
  9
$LUNITS
 70
           2
  9
$LUPREC
 70
           4
  9
$SKETCHINC
 40
0.1
  9
$FILLETRAD
 40
0.0
  9
$AUNITS
 70
           0
  9
$AUPREC
 70
           0
  9
$MENU
  1
acad
  9
$ELEVATION
 40
0.0
  9
$PELEVATION
 40
0.0
  9
$THICKNESS
 40
0.0
  9
$LIMCHECK
 70
           0
  9
$BLIPMODE
 70
           1
  9
$CHAMFERA
 40
0.0
  9
$CHAMFERB
 40
0.0
  9
$CHAMFERC
 40
0.0
  9
$CHAMFERD
 40
0.0
  9
$SKPOLY
 70
           0
  9
$TDCREATE
 40
0.000000000
  9
$TDUPDATE
 40
0.000000000
  9
$TDINDWG
 40
0.0000000000
  9
$TDUSRTIMER
 40
0.0000000000
  9
$USRTIMER
 70
           1
  9
$ANGBASE
 50
0.0
  9
$ANGDIR
 70
           0
  9
$PDMODE
 70
           0
  9
$PDSIZE
 40
0.0
  9
$PLINEWID
 40
0.0
  9
$COORDS
 70
           0
  9
$SPLFRAME
 70
           0
  9
$SPLINETYPE
 70
           6
  9
$SPLINESEGS
 70
           8
  9
$ATTDIA
 70
           0
  9
$ATTREQ
 70
           1
  9
$HANDLING
 70
           1
  9
$HANDSEED
  5
2CA
  9
$SURFTAB1
 70
           6
  9
$SURFTAB2
 70
           6
  9
$SURFTYPE
 70
           6
  9
$SURFU
 70
           6
  9
$SURFV
 70
           6
  9
$UCSNAME
  2

  9
$UCSORG
 10
0.0
 20
0.0
 30
0.0
  9
$UCSXDIR
 10
1.0
 20
0.0
 30
0.0
  9
$UCSYDIR
 10
0.0
 20
1.0
 30
0.0
  9
$PUCSNAME
  2

  9
$PUCSORG
 10
0.0
 20
0.0
 30
0.0
  9
$PUCSXDIR
 10
1.0
 20
0.0
 30
0.0
  9
$PUCSYDIR
 10
0.0
 20
1.0
 30
0.0
  9
$USERI1
 70
           0
  9
$USERI2
 70
           0
  9
$USERI3
 70
           0
  9
$USERI4
 70
           0
  9
$USERI5
 70
           0
  9
$USERR1
 40
0.0
  9
$USERR2
 40
0.0
  9
$USERR3
 40
0.0
  9
$USERR4
 40
0.0
  9
$USERR5
 40
0.0
  9
$WORLDVIEW
 70
           1
  9
$SHADEDGE
 70
           3
  9
$SHADEDIF
 70
          70
  9
$TILEMODE
 70
           1
  9
$MAXACTVP
 70
          16
  9
$PINSBASE
 10
0.0
 20
0.0
 30
0.0
  9
$PLIMCHECK
 70
           0
  9
$PEXTMIN
 10
1.000000000000E+20
 20
1.000000000000E+20
 30
1.000000000000E+20
  9
$PEXTMAX
 10
-1.000000000000E+20
 20
-1.000000000000E+20
 30
-1.000000000000E+20
  9
$PLIMMIN
 10
0.0
 20
0.0
  9
$PLIMMAX
 10
12.0
 20
9.0
  9
$UNITMODE
 70
           0
  9
$VISRETAIN
 70
           0
  9
$PLINEGEN
 70
           1
  9
$PSLTSCALE
 70
           0
  9
$TREEDEPTH
 70
        3020
  9
$PICKSTYLE
 70
           1
  9
$CMLSTYLE
  2
STANDARD
  9
$CMLJUST
 70
           0
  9
$CMLSCALE
 40
1.0
  9
$PROXYGRAPHICS
 70
           0
  9
$MEASUREMENT
 70
           0
  0
ENDSEC
  0
SECTION
  2
CLASSES
  0
CLASS
  1
LWPOLYLINE
  2
AcDbPolyline
  3
"AutoCAD"
 90
        0
280
           0
281
           1
  0
CLASS
  1
IMAGE
  2
AcDbRasterImage
  3
ISM
 90
      127
280
           0
281
           1
  0
CLASS
  1
OLE2FRAME
  2
AcDbOle2Frame
  3
""
 90
        0
280
           0
281
           1
  0
CLASS
  1
HATCH
  2
AcDbHatch
  3
"ACAD_SEDONA"
 90
        0
280
           0
281
           1
  0
CLASS
  1
DICTIONARYVAR
  2
AcDbDictionaryVar
  3
"AutoCAD"
 90
        0
280
           0
281
           0
  0
CLASS
  1
RASTERVARIABLES
  2
AcDbRasterVariables
  3
ISM
 90
        0
280
           0
281
           0
  0
CLASS
  1
IMAGEDEF
  2
AcDbRasterImageDef
  3
ISM
 90
        0
280
           0
281
           0
  0
CLASS
  1
IMAGEDEF_REACTOR
  2
AcDbRasterImageDefReactor
  3
ISM
 90
        1
280
           0
281
           0
  0
CLASS
  1
IDBUFFER
  2
AcDbIdBuffer
  3
"Acad"
 90
        0
280
           0
281
           0
  0
CLASS
  1
SPATIAL_FILTER
  2
AcDbSpatialFilter
  3
"Acad"
 90
        0
280
           0
281
           0
  0
CLASS
  1
XRECORD
  2
AcDbXrecord
  3
"<Built In>"
 90
        0
280
           0
281
           0
  0
CLASS
  1
SORTENTSTABLE
  2
AcDbSortentsTable
  3
"AutoCAD"
 90
        0
280
           0
281
           0
  0
CLASS
  1
LAYER_INDEX
  2
AcDbLayerIndex
  3
"Acad"
 90
        0
280
           0
281
           0
  0
CLASS
  1
SPATIAL_INDEX
  2
AcDbSpatialIndex
  3
"Acad"
 90
        0
280
           0
281
           0
  0
CLASS
  1
OBJECT_PTR
  2
CAseDLPNTableRecord
  3
"ASE-LPNTableRecord"
 90
        1
280
           0
281
           0
  0
CLASS
  1
LAYOUT
  2
AcDbLayout
  3
"AutoCAD 2000"
 90
        1
280
           0
281
           0
  0
CLASS
  1
PLOTSETTINGS
  2
AcDbPlotSettings
  3
"AutoCAD 2000"
 90
        1
280
           0
281
           0
  0
CLASS
  1
ACDBDICTIONARYWDFLT
  2
AcDbDictionaryWithDefault
  3
"AutoCAD 2000"
 90
        1
280
           0
281
           0
  0
CLASS
  1
ACDBPLACEHOLDER
  2
AcDbPlaceHolder
  3
"AutoCAD 2000"
 90
        1
280
           0
281
           0
  0
CLASS
  1
VBA_PROJECT
  2
AcDbVbaProject
  3
"acadvba"
 90
        1
280
           0
281
           0
  0
CLASS
  1
WIPEOUT
  2
AcDbWipeout
  3
WipeOut|AutoCAD Express Tool|expresstools@autodesk.com
 90
      127
280
           0
281
           1
  0
CLASS
  1
WIPEOUTVARIABLES
  2
AcDbWipeoutVariables
  3
WipeOut|AutoCAD Express Tool|expresstools@autodesk.com
 90
        0
280
           0
281
           0
  0
CLASS
  1
RTEXT
  2
RText
  3
RText|AutoCAD Express Tool|expresstools@autodesk.com
 90
        0
280
           0
281
           1
  0
CLASS
  1
ARCALIGNEDTEXT
  2
AcDbArcAlignedText
  3
ATEXT|AutoCAD Express Tool|expresstools@autodesk.com
 90
        0
280
           0
281
           1
  0
ENDSEC
  0
SECTION
  2
TABLES
  0
TABLE
  2
VPORT
  5
7
100
AcDbSymbolTable
 70
           1
  0
VPORT
  5
15
100
AcDbSymbolTableRecord
100
AcDbViewportTableRecord
  2
*ACTIVE
 70
           0
 10
0.0
 20
0.0
 11
1.0
 21
1.0
 12
6.591288
 22
4.579184
 13
0.0
 23
0.0
 14
1.0
 24
1.0
 15
0.0
 25
0.0
 16
0.0
 26
0.0
 36
1.0
 17
0.0
 27
0.0
 37
0.0
 40
9.158369
 41
0.688564
 42
50.0
 43
0.0
 44
0.0
 50
0.0
 51
0.0
 71
           0
 72
         100
 73
           1
 74
           1
 75
           0
 76
           0
 77
           0
 78
           0
  0
ENDTAB
  0
TABLE
  2
LTYPE
  5
4
100
AcDbSymbolTable
 70
          10
  0
LTYPE
  5
11
100
AcDbSymbolTableRecord
100
AcDbLinetypeTableRecord
  2
BYBLOCK
 70
          64
  3

 72
          65
 73
           0
 40
0.0
  0
LTYPE
  5
12
100
AcDbSymbolTableRecord
100
AcDbLinetypeTableRecord
  2
BYLAYER
 70
          64
  3

 72
          65
 73
           0
 40
0.0
  0
LTYPE
  5
13
100
AcDbSymbolTableRecord
100
AcDbLinetypeTableRecord
  2
CONTINUOUS
 70
          64
  3
Solid line
 72
          65
 73
           0
 40
0.0
  0
LTYPE
  5
1D
100
AcDbSymbolTableRecord
100
AcDbLinetypeTableRecord
  2
DASHED
 70
          64
  3
Dashed
 72
          65
 73
           2
 40
15.0
 49
12.0
 74
           0
 49
-3.0
 74
           0
  0
LTYPE
  5
1E
100
AcDbSymbolTableRecord
100
AcDbLinetypeTableRecord
  2
DOTTED
 70
          64
  3
Dotted
 72
          65
 73
           2
 40
3.5
 49
0.5
 74
           0
 49
-3.0
 74
           0
  0
LTYPE
  5
1F
100
AcDbSymbolTableRecord
100
AcDbLinetypeTableRecord
  2
DOT_CENTER
 70
          64
  3
Dot_Center
 72
          65
 73
           4
 40
2.0
 49
1.25
 74
           0
 49
-0.25
 74
           0
 49
0.25
 74
           0
 49
-0.25
 74
           0
  0
LTYPE
  5
20
100
AcDbSymbolTableRecord
100
AcDbLinetypeTableRecord
  2
LONG_DASHED
 70
          64
  3
Long_Dashed
 72
          65
 73
           2
 40
2.0
 49
1.5
 74
           0
 49
-0.5
 74
           0
  0
LTYPE
  5
21
100
AcDbSymbolTableRecord
100
AcDbLinetypeTableRecord
  2
DASH_CENTER
 70
          64
  3
Dash_Center
 72
          65
 73
           4
 40
36.0
 49
24.0
 74
           0
 49
-3.0
 74
           0
 49
6.0
 74
           0
 49
-3.0
 74
           0
  0
LTYPE
  5
22
100
AcDbSymbolTableRecord
100
AcDbLinetypeTableRecord
  2
PHANTOM
 70
          64
  3
Phantom
 72
          65
 73
           6
 40
2.5
 49
1.25
 74
           0
 49
-0.25
 74
           0
 49
0.25
 74
           0
 49
-0.25
 74
           0
 49
0.25
 74
           0
 49
-0.25
 74
           0
  0
LTYPE
  5
23
100
AcDbSymbolTableRecord
100
AcDbLinetypeTableRecord
  2
CENTER_DASH_DASH
 70
          64
  3
Center_Dash_Dash
 72
          65
 73
           6
 40
22.0
 49
12.0
 74
           0
 49
-3.0
 74
           0
 49
0.5
 74
           0
 49
-3.0
 74
           0
 49
0.5
 74
           0
 49
-3.0
 74
           0
  0
ENDTAB
  0
TABLE
  2
LAYER
  5
2
100
AcDbSymbolTable
 70
           2
  0
LAYER
  5
14
100
AcDbSymbolTableRecord
100
AcDbLayerTableRecord
  2
0
 70
           0
 62
           7
  6
CONTINUOUS
  0
LAYER
  5
24
100
AcDbSymbolTableRecord
100
AcDbLayerTableRecord
  2
1
 70
           0
 62
           7
  6
CONTINUOUS
  0
ENDTAB
  0
TABLE
  2
STYLE
  5
3
100
AcDbSymbolTable
 70
           2
  0
STYLE
  5
17
100
AcDbSymbolTableRecord
100
AcDbTextStyleTableRecord
  2
STANDARD
 70
           0
 40
0.0
 41
1.0
 50
0.0
 71
           0
 42
0.0
  3
txt
  4

  0
STYLE
  5
2BF
100
AcDbSymbolTableRecord
100
AcDbTextStyleTableRecord
  2
CONVERTER_1
 70
           0
 40
0.0
 41
0.71262
 50
0.0
 71
           0
 42
0.0
  3
txt.shx
  4

  0
ENDTAB
  0
TABLE
  2
VIEW
  5
5
100
AcDbSymbolTable
 70
           0
  0
ENDTAB
  0
TABLE
  2
UCS
  5
6
100
AcDbSymbolTable
 70
           0
  0
ENDTAB
  0
TABLE
  2
APPID
  5
8
100
AcDbSymbolTable
 70
           1
  0
APPID
  5
16
100
AcDbSymbolTableRecord
100
AcDbRegAppTableRecord
  2
ACAD
 70
           0
  0
ENDTAB
  0
TABLE
  2
DIMSTYLE
  5
9
100
AcDbSymbolTable
 70
           1
  0
DIMSTYLE
105
18
100
AcDbSymbolTableRecord
100
AcDbDimStyleTableRecord
  2
STANDARD
 70
           0
  3

  4

  5

  6

  7

 40
1.0
 41
0.18
 42
0.0625
 43
0.38
 44
0.18
 45
0.0
 46
0.0
 47
0.0
 48
0.0
 71
           0
 72
           0
 73
           1
 74
           1
 75
           0
 76
           0
 77
           0
 78
           0
140
0.18
141
0.09
142
0.0
143
25.4
144
1.0
145
0.0
146
1.0
147
0.09
170
           0
171
           2
172
           0
173
           0
174
           0
175
           0
176
           0
177
           0
178
           0
270
           2
271
           4
272
           4
273
           2
274
           2
275
           0
280
           0
281
           0
282
           0
283
           1
284
           0
285
           0
286
           0
287
           0
288
           0
340
17
  0
ENDTAB
  0
TABLE
  2
BLOCK_RECORD
  5
1
100
AcDbSymbolTable
 70
           8
  0
BLOCK_RECORD
  5
A
100
AcDbSymbolTableRecord
100
AcDbBlockTableRecord
  2
*MODEL_SPACE
  0
BLOCK_RECORD
  5
B
100
AcDbSymbolTableRecord
100
AcDbBlockTableRecord
  2
*PAPER_SPACE
  0
BLOCK_RECORD
  5
25
100
AcDbSymbolTableRecord
100
AcDbBlockTableRecord
  2
DLX__1
  0
BLOCK_RECORD
  5
27
100
AcDbSymbolTableRecord
100
AcDbBlockTableRecord
  2
DLX__2
  0
BLOCK_RECORD
  5
29
100
AcDbSymbolTableRecord
100
AcDbBlockTableRecord
  2
DLX__3
  0
BLOCK_RECORD
  5
2B
100
AcDbSymbolTableRecord
100
AcDbBlockTableRecord
  2
EINBAUSET
  0
BLOCK_RECORD
  5
2D
100
AcDbSymbolTableRecord
100
AcDbBlockTableRecord
  2
WANNE_FREE_BASE_1200X900_4
  0
BLOCK_RECORD
  5
30
100
AcDbSymbolTableRecord
100
AcDbBlockTableRecord
  2
WANNENF_SSE
  0
BLOCK_RECORD
  5
32
100
AcDbSymbolTableRecord
100
AcDbBlockTableRecord
  2
WANNE_FREE_BASE_1200X900_6
  0
BLOCK_RECORD
  5
35
100
AcDbSymbolTableRecord
100
AcDbBlockTableRecord
  2
WANNE_FREE_BASE_1200X900_7
  0
ENDTAB
  0
ENDSEC
  0
SECTION
  2
BLOCKS
  0
BLOCK
  5
D
100
AcDbEntity
  8
0
100
AcDbBlockBegin
  2
*MODEL_SPACE
 70
           0
 10
0.0
 20
0.0
 30
0.0
  3
*MODEL_SPACE
  1

  0
ENDBLK
  5
E
100
AcDbEntity
  8
0
100
AcDbBlockEnd
  0
BLOCK
  5
F
100
AcDbEntity
 67
           1
  8
0
100
AcDbBlockBegin
  2
*PAPER_SPACE
 70
           0
 10
0.0
 20
0.0
 30
0.0
  3
*PAPER_SPACE
  1

  0
ENDBLK
  5
10
100
AcDbEntity
 67
           1
  8
0
100
AcDbBlockEnd
  0
BLOCK
  5
26
100
AcDbEntity
  8
0
100
AcDbBlockBegin
  2
DLX__1
 70
           0
 10
0.0
 20
0.0
 30
0.0
  3
DLX__1
  1

  0
CIRCLE
  5
F2
100
AcDbEntity
  8
1
  6
CONTINUOUS
 62
           3
100
AcDbCircle
 10
197.735875237937
 20
1700.878787878755
 40
5.530127989696
  0
CIRCLE
  5
F1
100
AcDbEntity
  8
1
  6
CONTINUOUS
 62
           3
100
AcDbCircle
 10
197.735875237937
 20
1700.878787878755
 40
5.972862778754
  0
ARC
  5
F0
100
AcDbEntity
  8
1
  6
CONTINUOUS
 62
           3
100
AcDbCircle
 10
198.514586791596
 20
1699.362233682226
 40
1.391870091328
100
AcDbArc
 50
-1.298612665727
 51
66.544866494048
  0
ARC
  5
EF
100
AcDbEntity
  8
1
  6
CONTINUOUS
 62
           3
100
AcDbCircle
 10
197.789193605106
 20
1699.053039389822
 40
1.155889798232
100
AcDbArc
 50
0.985058170485
 51
82.918254632932
  0
ARC
  5
EE
100
AcDbEntity
  8
1
  6
CONTINUOUS
 62
           3
100
AcDbCircle
 10
197.864376243302
 20
1702.264025930551
 40
1.257687287767
100
AcDbArc
 50
-74.800419047058
 51
80.931395238788
  0
ARC
  5
ED
100
AcDbEntity
  8
1
  6
CONTINUOUS
 62
           3
100
AcDbCircle
 10
197.942694069316
 20
1702.303919921381
 40
2.009798008862
100
AcDbArc
 50
-55.929988464575
 51
86.297888718259
  0
LINE
  5
EC
100
AcDbEntity
  8
1
  6
CONTINUOUS
 62
           3
100
AcDbLine
 10
196.206636135699
 20
1703.505992531278
 11
196.206636135699
 21
1701.050334541276
  0
LINE
  5
EB
100
AcDbEntity
  8
1
  6
CONTINUOUS
 62
           3
100
AcDbLine
 10
198.062609127785
 20
1703.505992531278
 11
196.206636135699
 21
1703.505992531278
  0
LINE
  5
EA
100
AcDbEntity
  8
1
  6
CONTINUOUS
 62
           3
100
AcDbLine
 10
196.206636135699
 20
1701.050334541276
 11
198.194119363641
 21
1701.050334541276
  0
LINE
  5
E9
100
AcDbEntity
  8
1
  6
CONTINUOUS
 62
           3
100
AcDbLine
 10
196.206636135699
 20
1697.451055788282
 11
195.334188436584
 21
1697.451055788282
  0
LINE
  5
E8
100
AcDbEntity
  8
1
  6
CONTINUOUS
 62
           3
100
AcDbLine
 10
197.931697837317
 20
1700.200111213842
 11
196.206636135699
 21
1700.200111213842
  0
LINE
  5
E7
100
AcDbEntity
  8
1
  6
CONTINUOUS
 62
           3
100
AcDbLine
 10
198.944912577237
 20
1697.451055788282
 11
198.944912577237
 21
1699.0729110559
  0
LINE
  5
E6
100
AcDbEntity
  8
1
  6
CONTINUOUS
 62
           3
100
AcDbLine
 10
199.906099392742
 20
1697.451055788282
 11
198.944912577237
 21
1697.451055788282
  0
LINE
  5
E5
100
AcDbEntity
  8
1
  6
CONTINUOUS
 62
           3
100
AcDbLine
 10
199.906099392742
 20
1699.330689554626
 11
199.906099392742
 21
1697.451055788282
  0
LINE
  5
E4
100
AcDbEntity
  8
1
  6
CONTINUOUS
 62
           3
100
AcDbLine
 10
197.776108295824
 20
1704.309523963456
 11
198.072464878176
 21
1704.309523963456
  0
LINE
  5
E3
100
AcDbEntity
  8
1
  6
CONTINUOUS
 62
           3
100
AcDbLine
 10
195.334188436584
 20
1704.309523963456
 11
197.776108295824
 21
1704.309523963456
  0
LINE
  5
E2
100
AcDbEntity
  8
1
  6
CONTINUOUS
 62
           3
100
AcDbLine
 10
195.334188436584
 20
1697.451055788282
 11
195.334188436584
 21
1704.309523963456
  0
LINE
  5
E1
100
AcDbEntity
  8
1
  6
CONTINUOUS
 62
           3
100
AcDbLine
 10
196.206636135699
 20
1700.200111213842
 11
196.206636135699
 21
1697.451055788282
  0
LINE
  5
E0
100
AcDbEntity
  8
1
  6
CONTINUOUS
 62
           3
100
AcDbLine
 10
151.68540084903
 20
1706.38450847832
 11
149.591323771416
 21
1706.38450847832
  0
LINE
  5
DF
100
AcDbEntity
  8
1
  6
CONTINUOUS
 62
           3
100
AcDbLine
 10
148.975465701067
 20
1695.323902417793
 11
151.68540084903
 21
1706.38450847832
  0
LINE
  5
DE
100
AcDbEntity
  8
1
  6
CONTINUOUS
 62
           3
100
AcDbLine
 10
159.445851089087
 20
1695.323902417793
 11
148.975465701067
 21
1695.323902417793
  0
LINE
  5
DD
100
AcDbEntity
  8
1
  6
CONTINUOUS
 62
           3
100
AcDbLine
 10
158.903864059426
 20
1693.111781205662
 11
159.445851089087
 21
1695.323902417793
  0
LINE
  5
DC
100
AcDbEntity
  8
1
  6
CONTINUOUS
 62
           3
100
AcDbLine
 10
146.339401593847
 20
1693.111781205662
 11
158.903864059426
 21
1693.111781205662
  0
LINE
  5
DB
100
AcDbEntity
  8
1
  6
CONTINUOUS
 62
           3
100
AcDbLine
 10
149.591323771416
 20
1706.38450847832
 11
146.339401593847
 21
1693.111781205662
  0
LINE
  5
DA
100
AcDbEntity
  8
1
  6
CONTINUOUS
 62
           3
100
AcDbLine
 10
136.144653716558
 20
1697.536023629844
 11
139.900368855924
 21
1704.172387266269
  0
LINE
  5
D9
100
AcDbEntity
  8
1
  6
CONTINUOUS
 62
           3
100
AcDbLine
 10
140.957172001214
 20
1704.172387266269
 11
139.900368855924
 21
1704.172387266269
  0
LINE
  5
D8
100
AcDbEntity
  8
1
  6
CONTINUOUS
 62
           3
100
AcDbLine
 10
141.460964963069
 20
1697.536023629844
 11
140.957172001214
 21
1704.172387266269
  0
LINE
  5
D7
100
AcDbEntity
  8
1
  6
CONTINUOUS
 62
           3
100
AcDbLine
 10
136.144653716558
 20
1697.536023629844
 11
141.460964963069
 21
1697.536023629844
  0
LINE
  5
D6
100
AcDbEntity
  8
1
  6
CONTINUOUS
 62
           3
100
AcDbLine
 10
133.640843623664
 20
1693.111781205662
 11
131.262046635093
 21
1693.111781205662
  0
LINE
  5
D5
100
AcDbEntity
  8
1
  6
CONTINUOUS
 62
           3
100
AcDbLine
 10
134.892748670027
 20
1695.323902417793
 11
133.640843623664
 21
1693.111781205662
  0
LINE
  5
D4
100
AcDbEntity
  8
1
  6
CONTINUOUS
 62
           3
100
AcDbLine
 10
141.628895950391
 20
1695.323902417793
 11
134.892748670027
 21
1695.323902417793
  0
LINE
  5
D3
100
AcDbEntity
  8
1
  6
CONTINUOUS
 62
           3
100
AcDbLine
 10
141.796826937658
 20
1693.111781205662
 11
141.628895950391
 21
1695.323902417793
  0
LINE
  5
D2
100
AcDbEntity
  8
1
  6
CONTINUOUS
 62
           3
100
AcDbLine
 10
143.826509100727
 20
1693.111781205662
 11
141.796826937658
 21
1693.111781205662
  0
LINE
  5
D1
100
AcDbEntity
  8
1
  6
CONTINUOUS
 62
           3
100
AcDbLine
 10
142.818923176965
 20
1706.38450847832
 11
143.826509100727
 21
1693.111781205662
  0
LINE
  5
D0
100
AcDbEntity
  8
1
  6
CONTINUOUS
 62
           3
100
AcDbLine
 10
138.77347691399
 20
1706.38450847832
 11
142.818923176965
 21
1706.38450847832
  0
LINE
  5
CF
100
AcDbEntity
  8
1
  6
CONTINUOUS
 62
           3
100
AcDbLine
 10
131.262046635093
 20
1693.111781205662
 11
138.77347691399
 21
1706.38450847832
  0
LINE
  5
CE
100
AcDbEntity
  8
1
  6
CONTINUOUS
 62
           3
100
AcDbLine
 10
118.278768754059
 20
1693.111781205662
 11
116.184691676499
 21
1693.111781205662
  0
LINE
  5
CD
100
AcDbEntity
  8
1
  6
CONTINUOUS
 62
           3
100
AcDbLine
 10
121.084771050988
 20
1704.564485538598
 11
118.278768754059
 21
1693.111781205662
  0
LINE
  5
CC
100
AcDbEntity
  8
1
  6
CONTINUOUS
 62
           3
100
AcDbLine
 10
121.725319317498
 20
1702.905394629535
 11
121.084771050988
 21
1704.564485538598
  0
LINE
  5
CB
100
AcDbEntity
  8
1
  6
CONTINUOUS
 62
           3
100
AcDbLine
 10
125.506475653208
 20
1693.111781205662
 11
121.725319317498
 21
1702.905394629535
  0
LINE
  5
CA
100
AcDbEntity
  8
1
  6
CONTINUOUS
 62
           3
100
AcDbLine
 10
128.749154141977
 20
1693.111781205662
 11
125.506475653208
 21
1693.111781205662
  0
LINE
  5
C9
100
AcDbEntity
  8
1
  6
CONTINUOUS
 62
           3
100
AcDbLine
 10
132.001076319597
 20
1706.38450847832
 11
128.749154141977
 21
1693.111781205662
  0
LINE
  5
C8
100
AcDbEntity
  8
1
  6
CONTINUOUS
 62
           3
100
AcDbLine
 10
129.906999241983
 20
1706.38450847832
 11
132.001076319597
 21
1706.38450847832
  0
LINE
  5
C7
100
AcDbEntity
  8
1
  6
CONTINUOUS
 62
           3
100
AcDbLine
 10
127.06156733663
 20
1694.770872114746
 11
129.906999241983
 21
1706.38450847832
  0
LINE
  5
C6
100
AcDbEntity
  8
1
  6
CONTINUOUS
 62
           3
100
AcDbLine
 10
122.577729470355
 20
1706.38450847832
 11
127.06156733663
 21
1694.770872114746
  0
LINE
  5
C5
100
AcDbEntity
  8
1
  6
CONTINUOUS
 62
           3
100
AcDbLine
 10
119.436613854014
 20
1706.38450847832
 11
122.577729470355
 21
1706.38450847832
  0
LINE
  5
C4
100
AcDbEntity
  8
1
  6
CONTINUOUS
 62
           3
100
AcDbLine
 10
116.184691676499
 20
1693.111781205662
 11
119.436613854014
 21
1706.38450847832
  0
LINE
  5
C3
100
AcDbEntity
  8
1
  6
CONTINUOUS
 62
           3
100
AcDbLine
 10
116.923721360898
 20
1706.38450847832
 11
114.829644283334
 21
1706.38450847832
  0
LINE
  5
C2
100
AcDbEntity
  8
1
  6
CONTINUOUS
 62
           3
100
AcDbLine
 10
114.829644283334
 20
1706.38450847832
 11
111.577722105769
 21
1693.111781205662
  0
LINE
  5
C1
100
AcDbEntity
  8
1
  6
CONTINUOUS
 62
           3
100
AcDbLine
 10
113.671799183329
 20
1693.111781205662
 11
116.923721360898
 21
1706.38450847832
  0
LINE
  5
C0
100
AcDbEntity
  8
1
  6
CONTINUOUS
 62
           3
100
AcDbLine
 10
111.577722105769
 20
1693.111781205662
 11
113.671799183329
 21
1693.111781205662
  0
LINE
  5
BF
100
AcDbEntity
  8
1
  6
CONTINUOUS
 62
           3
100
AcDbLine
 10
109.084501950522
 20
1701.739053932891
 11
111.178579028048
 21
1701.739053932891
  0
LINE
  5
BE
100
AcDbEntity
  8
1
  6
CONTINUOUS
 62
           3
100
AcDbLine
 10
108.054726594372
 20
1697.536023629844
 11
107.512739564605
 21
1695.323902417793
  0
LINE
  5
BD
100
AcDbEntity
  8
1
  6
CONTINUOUS
 62
           3
100
AcDbLine
 10
103.866572438972
 20
1697.536023629844
 11
108.054726594372
 21
1697.536023629844
  0
LINE
  5
BC
100
AcDbEntity
  8
1
  6
CONTINUOUS
 62
           3
100
AcDbLine
 10
104.408559468619
 20
1699.748144842033
 11
103.866572438972
 21
1697.536023629844
  0
LINE
  5
BB
100
AcDbEntity
  8
1
  6
CONTINUOUS
 62
           3
100
AcDbLine
 10
110.690790701425
 20
1699.748144842033
 11
109.064829612653
 21
1693.111781205662
  0
LINE
  5
BA
100
AcDbEntity
  8
1
  6
CONTINUOUS
 62
           3
100
AcDbLine
 10
110.690790701425
 20
1699.748144842033
 11
104.408559468619
 21
1699.748144842033
  0
LINE
  5
B9
100
AcDbEntity
  8
1
  6
CONTINUOUS
 62
           3
100
AcDbLine
 10
99.136431254276
 20
1695.323902417793
 11
101.304379372603
 21
1704.172387266269
  0
LINE
  5
B8
100
AcDbEntity
  8
1
  6
CONTINUOUS
 62
           3
100
AcDbLine
 10
101.304379372603
 20
1704.172387266269
 11
109.6806876829
 21
1704.172387266269
  0
LINE
  5
B7
100
AcDbEntity
  8
1
  6
CONTINUOUS
 62
           3
100
AcDbLine
 10
109.6806876829
 20
1704.172387266269
 11
109.084501950522
 21
1701.739053932891
  0
LINE
  5
B6
100
AcDbEntity
  8
1
  6
CONTINUOUS
 62
           3
100
AcDbLine
 10
107.512739564605
 20
1695.323902417793
 11
99.136431254276
 21
1695.323902417793
  0
LINE
  5
B5
100
AcDbEntity
  8
1
  6
CONTINUOUS
 62
           3
100
AcDbLine
 10
109.064829612653
 20
1693.111781205662
 11
96.50036714704
 21
1693.111781205662
  0
LINE
  5
B4
100
AcDbEntity
  8
1
  6
CONTINUOUS
 62
           3
100
AcDbLine
 10
112.316751790175
 20
1706.38450847832
 11
111.178579028048
 21
1701.739053932891
  0
LINE
  5
B3
100
AcDbEntity
  8
1
  6
CONTINUOUS
 62
           3
100
AcDbLine
 10
99.752289324584
 20
1706.38450847832
 11
112.316751790175
 21
1706.38450847832
  0
LINE
  5
B2
100
AcDbEntity
  8
1
  6
CONTINUOUS
 62
           3
100
AcDbLine
 10
96.50036714704
 20
1693.111781205662
 11
99.752289324584
 21
1706.38450847832
  0
LINE
  5
B1
100
AcDbEntity
  8
1
  6
CONTINUOUS
 62
           3
100
AcDbLine
 10
93.987474654055
 20
1693.111781205662
 11
97.239396831465
 21
1706.38450847832
  0
LINE
  5
B0
100
AcDbEntity
  8
1
  6
CONTINUOUS
 62
           3
100
AcDbLine
 10
91.893397576336
 20
1693.111781205662
 11
93.987474654055
 21
1693.111781205662
  0
LINE
  5
AF
100
AcDbEntity
  8
1
  6
CONTINUOUS
 62
           3
100
AcDbLine
 10
95.145319753901
 20
1706.38450847832
 11
91.893397576336
 21
1693.111781205662
  0
LINE
  5
AE
100
AcDbEntity
  8
1
  6
CONTINUOUS
 62
           3
100
AcDbLine
 10
97.239396831465
 20
1706.38450847832
 11
95.145319753901
 21
1706.38450847832
  0
LINE
  5
AD
100
AcDbEntity
  8
1
  6
CONTINUOUS
 62
           3
100
AcDbLine
 10
78.910119695298
 20
1693.111781205662
 11
79.994093754409
 21
1697.536023629844
  0
LINE
  5
AC
100
AcDbEntity
  8
1
  6
CONTINUOUS
 62
           3
100
AcDbLine
 10
76.816042617622
 20
1693.111781205662
 11
78.910119695298
 21
1693.111781205662
  0
LINE
  5
AB
100
AcDbEntity
  8
1
  6
CONTINUOUS
 62
           3
100
AcDbLine
 10
90.328223469318
 20
1696.979895810782
 11
89.380505083205
 21
1693.111781205662
  0
LINE
  5
AA
100
AcDbEntity
  8
1
  6
CONTINUOUS
 62
           3
100
AcDbLine
 10
81.620054843184
 20
1704.172387266269
 11
80.536080784001
 21
1699.748144842033
  0
LINE
  5
A9
100
AcDbEntity
  8
1
  6
CONTINUOUS
 62
           3
100
AcDbLine
 10
89.996363153703
 20
1704.172387266269
 11
81.620054843184
 21
1704.172387266269
  0
LINE
  5
A8
100
AcDbEntity
  8
1
  6
CONTINUOUS
 62
           3
100
AcDbLine
 10
88.912389094381
 20
1699.748144842033
 11
89.996363153703
 21
1704.172387266269
  0
LINE
  5
A7
100
AcDbEntity
  8
1
  6
CONTINUOUS
 62
           3
100
AcDbLine
 10
80.536080784001
 20
1699.748144842033
 11
88.912389094381
 21
1699.748144842033
  0
LINE
  5
A6
100
AcDbEntity
  8
1
  6
CONTINUOUS
 62
           3
100
AcDbLine
 10
88.370402064938
 20
1697.536023629844
 11
79.994093754409
 21
1697.536023629844
  0
LINE
  5
A5
100
AcDbEntity
  8
1
  6
CONTINUOUS
 62
           3
100
AcDbLine
 10
87.286428005566
 20
1693.111781205662
 11
88.370402064938
 21
1697.536023629844
  0
LINE
  5
A4
100
AcDbEntity
  8
1
  6
CONTINUOUS
 62
           3
100
AcDbLine
 10
89.380505083205
 20
1693.111781205662
 11
87.286428005566
 21
1693.111781205662
  0
LINE
  5
A3
100
AcDbEntity
  8
1
  6
CONTINUOUS
 62
           3
100
AcDbLine
 10
92.632427260738
 20
1706.38450847832
 11
90.764903150884
 21
1698.762204858332
  0
LINE
  5
A2
100
AcDbEntity
  8
1
  6
CONTINUOUS
 62
           3
100
AcDbLine
 10
80.067964795158
 20
1706.38450847832
 11
92.632427260738
 21
1706.38450847832
  0
LINE
  5
A1
100
AcDbEntity
  8
1
  6
CONTINUOUS
 62
           3
100
AcDbLine
 10
80.067964795158
 20
1706.38450847832
 11
76.816042617622
 21
1693.111781205662
  0
LINE
  5
A0
100
AcDbEntity
  8
1
  6
CONTINUOUS
 62
           3
100
AcDbLine
 10
64.374751766132
 20
1695.323902417793
 11
66.542699884474
 21
1704.172387266269
  0
LINE
  5
9F
100
AcDbEntity
  8
1
  6
CONTINUOUS
 62
           3
100
AcDbLine
 10
66.542699884474
 20
1704.172387266269
 11
74.919008194964
 21
1704.172387266269
  0
LINE
  5
9E
100
AcDbEntity
  8
1
  6
CONTINUOUS
 62
           3
100
AcDbLine
 10
74.919008194964
 20
1704.172387266269
 11
72.751060076487
 21
1695.323902417793
  0
LINE
  5
9D
100
AcDbEntity
  8
1
  6
CONTINUOUS
 62
           3
100
AcDbLine
 10
72.751060076487
 20
1695.323902417793
 11
64.374751766132
 21
1695.323902417793
  0
LINE
  5
9C
100
AcDbEntity
  8
1
  6
CONTINUOUS
 62
           3
100
AcDbLine
 10
74.303150124491
 20
1693.111781205662
 11
61.738687658966
 21
1693.111781205662
  0
LINE
  5
9B
100
AcDbEntity
  8
1
  6
CONTINUOUS
 62
           3
100
AcDbLine
 10
77.555072302166
 20
1706.38450847832
 11
74.303150124491
 21
1693.111781205662
  0
LINE
  5
9A
100
AcDbEntity
  8
1
  6
CONTINUOUS
 62
           3
100
AcDbLine
 10
64.990609836448
 20
1706.38450847832
 11
77.555072302166
 21
1706.38450847832
  0
LINE
  5
99
100
AcDbEntity
  8
1
  6
CONTINUOUS
 62
           3
100
AcDbLine
 10
61.738687658966
 20
1693.111781205662
 11
64.990609836448
 21
1706.38450847832
  0
LINE
  5
98
100
AcDbEntity
  8
1
  6
CONTINUOUS
 62
           3
100
AcDbLine
 10
205.329503152207
 20
1650.0
 11
152.738701733397
 21
1650.0
  0
LINE
  5
97
100
AcDbEntity
  8
1
  6
CONTINUOUS
 62
           3
100
AcDbLine
 10
202.928830785688
 20
1656.19393939391
 11
160.119681233515
 21
1656.19393939391
  0
LINE
  5
96
100
AcDbEntity
  8
1
  6
CONTINUOUS
 62
           3
100
AcDbLine
 10
202.928830785688
 20
1656.19393939391
 11
205.329503152207
 21
1650.0
  0
LINE
  5
95
100
AcDbEntity
  8
1
  6
CONTINUOUS
 62
           3
100
AcDbLine
 10
195.686830708906
 20
1674.878917066824
 11
192.906977584949
 21
1682.051175145079
  0
LINE
  5
94
100
AcDbEntity
  8
1
  6
CONTINUOUS
 62
           3
100
AcDbLine
 10
201.284056889192
 20
1682.051175145079
 11
195.686830708906
 21
1674.878917066824
  0
LINE
  5
93
100
AcDbEntity
  8
1
  6
CONTINUOUS
 62
           3
100
AcDbLine
 10
205.32950315225
 20
1682.051175145079
 11
201.284056889192
 21
1682.051175145079
  0
LINE
  5
92
100
AcDbEntity
  8
1
  6
CONTINUOUS
 62
           3
100
AcDbLine
 10
197.029273107168
 20
1671.415301218603
 11
205.32950315225
 21
1682.051175145079
  0
LINE
  5
91
100
AcDbEntity
  8
1
  6
CONTINUOUS
 62
           3
100
AcDbLine
 10
201.899971200172
 20
1658.848484848477
 11
197.029273107168
 21
1671.415301218603
  0
LINE
  5
90
100
AcDbEntity
  8
1
  6
CONTINUOUS
 62
           3
100
AcDbLine
 10
197.854524937124
 20
1658.848484848477
 11
201.899971200172
 21
1658.848484848477
  0
LINE
  5
8F
100
AcDbEntity
  8
1
  6
CONTINUOUS
 62
           3
100
AcDbLine
 10
194.32626924244
 20
1667.951685370502
 11
197.854524937124
 21
1658.848484848477
  0
LINE
  5
8E
100
AcDbEntity
  8
1
  6
CONTINUOUS
 62
           3
100
AcDbLine
 10
187.222136662338
 20
1658.848484848477
 11
194.32626924244
 21
1667.951685370502
  0
LINE
  5
8D
100
AcDbEntity
  8
1
  6
CONTINUOUS
 62
           3
100
AcDbLine
 10
183.176690399341
 20
1658.848484848477
 11
187.222136662338
 21
1658.848484848477
  0
LINE
  5
8C
100
AcDbEntity
  8
1
  6
CONTINUOUS
 62
           3
100
AcDbLine
 10
192.983826844131
 20
1671.415301218661
 11
183.176690399341
 21
1658.848484848477
  0
LINE
  5
8B
100
AcDbEntity
  8
1
  6
CONTINUOUS
 62
           3
100
AcDbLine
 10
188.861531321934
 20
1682.051175145079
 11
192.983826844131
 21
1671.415301218661
  0
LINE
  5
8A
100
AcDbEntity
  8
1
  6
CONTINUOUS
 62
           3
100
AcDbLine
 10
192.906977584949
 20
1682.051175145079
 11
188.861531321934
 21
1682.051175145079
  0
LINE
  5
89
100
AcDbEntity
  8
1
  6
CONTINUOUS
 62
           3
100
AcDbLine
 10
175.878253440889
 20
1682.051175145079
 11
170.643060746967
 21
1682.051175145079
  0
LINE
  5
88
100
AcDbEntity
  8
1
  6
CONTINUOUS
 62
           3
100
AcDbLine
 10
171.277386577538
 20
1663.272727272797
 11
175.878253440889
 21
1682.051175145079
  0
LINE
  5
87
100
AcDbEntity
  8
1
  6
CONTINUOUS
 62
           3
100
AcDbLine
 10
176.51257927149
 20
1663.272727272797
 11
171.277386577538
 21
1663.272727272797
  0
LINE
  5
86
100
AcDbEntity
  8
1
  6
CONTINUOUS
 62
           3
100
AcDbLine
 10
181.113446134885
 20
1682.051175145079
 11
176.51257927149
 21
1663.272727272797
  0
LINE
  5
85
100
AcDbEntity
  8
1
  6
CONTINUOUS
 62
           3
100
AcDbLine
 10
186.348638828808
 20
1682.051175145079
 11
181.113446134885
 21
1682.051175145079
  0
LINE
  5
84
100
AcDbEntity
  8
1
  6
CONTINUOUS
 62
           3
100
AcDbLine
 10
180.6637979062
 20
1658.848484848477
 11
186.348638828808
 21
1682.051175145079
  0
LINE
  5
83
100
AcDbEntity
  8
1
  6
CONTINUOUS
 62
           3
100
AcDbLine
 10
164.958219824279
 20
1658.848484848477
 11
180.6637979062
 21
1658.848484848477
  0
LINE
  5
82
100
AcDbEntity
  8
1
  6
CONTINUOUS
 62
           3
100
AcDbLine
 10
170.643060746967
 20
1682.051175145079
 11
164.958219824279
 21
1658.848484848477
  0
LINE
  5
81
100
AcDbEntity
  8
1
  6
CONTINUOUS
 62
           3
100
AcDbLine
 10
163.301425922338
 20
1693.111781205662
 11
152.738701733397
 21
1650.0
  0
LINE
  5
80
100
AcDbEntity
  8
1
  6
CONTINUOUS
 62
           3
100
AcDbLine
 10
169.164841739606
 20
1693.111781205662
 11
163.301425922338
 21
1693.111781205662
  0
LINE
  5
7F
100
AcDbEntity
  8
1
  6
CONTINUOUS
 62
           3
100
AcDbLine
 10
160.119681233515
 20
1656.19393939391
 11
169.164841739606
 21
1693.111781205662
  0
LINE
  5
7E
100
AcDbEntity
  8
1
  6
CONTINUOUS
 62
           3
100
AcDbLine
 10
25.0
 20
1650.0
 11
32.852789041055
 21
1682.051175145079
  0
LINE
  5
7D
100
AcDbEntity
  8
1
  6
CONTINUOUS
 62
           3
100
AcDbLine
 10
32.852789041055
 20
1682.051175145079
 11
39.135020273752
 21
1682.051175145079
  0
LINE
  5
7C
100
AcDbEntity
  8
1
  6
CONTINUOUS
 62
           3
100
AcDbLine
 10
39.135020273752
 20
1682.051175145079
 11
32.366205292063
 21
1654.424242424182
  0
LINE
  5
7B
100
AcDbEntity
  8
1
  6
CONTINUOUS
 62
           3
100
AcDbLine
 10
32.366205292063
 20
1654.424242424182
 11
37.601397985942
 21
1654.424242424182
  0
LINE
  5
7A
100
AcDbEntity
  8
1
  6
CONTINUOUS
 62
           3
100
AcDbLine
 10
37.601397985942
 20
1654.424242424182
 11
45.725180541824
 21
1687.581478175405
  0
LINE
  5
79
100
AcDbEntity
  8
1
  6
CONTINUOUS
 62
           3
100
AcDbLine
 10
45.725180541824
 20
1687.581478175405
 11
28.03408469729
 21
1687.581478175405
  0
LINE
  5
78
100
AcDbEntity
  8
1
  6
CONTINUOUS
 62
           3
100
AcDbLine
 10
28.03408469729
 20
1687.581478175405
 11
29.389052271275
 21
1693.111781205662
  0
LINE
  5
77
100
AcDbEntity
  8
1
  6
CONTINUOUS
 62
           3
100
AcDbLine
 10
29.389052271275
 20
1693.111781205662
 11
53.362379348568
 21
1693.111781205662
  0
LINE
  5
76
100
AcDbEntity
  8
1
  6
CONTINUOUS
 62
           3
100
AcDbLine
 10
53.362379348568
 20
1693.111781205662
 11
42.799655159648
 21
1650.0
  0
LINE
  5
75
100
AcDbEntity
  8
1
  6
CONTINUOUS
 62
           3
100
AcDbLine
 10
42.799655159648
 20
1650.0
 11
25.0
 21
1650.0
  0
LINE
  5
74
100
AcDbEntity
  8
1
  6
CONTINUOUS
 62
           3
100
AcDbLine
 10
46.987809314775
 20
1650.0
 11
54.840598355768
 21
1682.051175145079
  0
LINE
  5
73
100
AcDbEntity
  8
1
  6
CONTINUOUS
 62
           3
100
AcDbLine
 10
54.840598355768
 20
1682.051175145079
 11
61.122829588578
 21
1682.051175145079
  0
LINE
  5
72
100
AcDbEntity
  8
1
  6
CONTINUOUS
 62
           3
100
AcDbLine
 10
61.122829588578
 20
1682.051175145079
 11
54.354014606783
 21
1654.424242424182
  0
LINE
  5
71
100
AcDbEntity
  8
1
  6
CONTINUOUS
 62
           3
100
AcDbLine
 10
54.354014606783
 20
1654.424242424182
 11
59.589207300767
 21
1654.424242424182
  0
LINE
  5
70
100
AcDbEntity
  8
1
  6
CONTINUOUS
 62
           3
100
AcDbLine
 10
59.589207300767
 20
1654.424242424182
 11
66.358022282573
 21
1682.051175145079
  0
LINE
  5
6F
100
AcDbEntity
  8
1
  6
CONTINUOUS
 62
           3
100
AcDbLine
 10
64.787464474364
 20
1650.0
 11
46.987809314775
 21
1650.0
  0
LINE
  5
6E
100
AcDbEntity
  8
1
  6
CONTINUOUS
 62
           3
100
AcDbLine
 10
66.358022282573
 20
1682.051175145079
 11
72.640253515379
 21
1682.051175145079
  0
LINE
  5
6D
100
AcDbEntity
  8
1
  6
CONTINUOUS
 62
           3
100
AcDbLine
 10
72.640253515379
 20
1682.051175145079
 11
64.787464474364
 21
1650.0
  0
LINE
  5
6C
100
AcDbEntity
  8
1
  6
CONTINUOUS
 62
           3
100
AcDbLine
 10
93.581024291314
 20
1682.051175145079
 11
76.828407670542
 21
1682.051175145079
  0
LINE
  5
6B
100
AcDbEntity
  8
1
  6
CONTINUOUS
 62
           3
100
AcDbLine
 10
76.828407670542
 20
1682.051175145079
 11
72.227540807151
 21
1663.272727272797
  0
LINE
  5
6A
100
AcDbEntity
  8
1
  6
CONTINUOUS
 62
           3
100
AcDbLine
 10
72.227540807151
 20
1663.272727272797
 11
82.697926195116
 21
1663.272727272797
  0
LINE
  5
69
100
AcDbEntity
  8
1
  6
CONTINUOUS
 62
           3
100
AcDbLine
 10
82.697926195116
 20
1663.272727272797
 11
80.529978076698
 21
1654.424242424182
  0
LINE
  5
68
100
AcDbEntity
  8
1
  6
CONTINUOUS
 62
           3
100
AcDbLine
 10
80.529978076698
 20
1654.424242424182
 11
70.059592688787
 21
1654.424242424182
  0
LINE
  5
67
100
AcDbEntity
  8
1
  6
CONTINUOUS
 62
           3
100
AcDbLine
 10
70.059592688787
 20
1654.424242424182
 11
68.97561862948
 21
1650.0
  0
LINE
  5
66
100
AcDbEntity
  8
1
  6
CONTINUOUS
 62
           3
100
AcDbLine
 10
68.97561862948
 20
1650.0
 11
85.728235250303
 21
1650.0
  0
LINE
  5
65
100
AcDbEntity
  8
1
  6
CONTINUOUS
 62
           3
100
AcDbLine
 10
85.728235250303
 20
1650.0
 11
90.064131487226
 21
1667.696969696953
  0
LINE
  5
64
100
AcDbEntity
  8
1
  6
CONTINUOUS
 62
           3
100
AcDbLine
 10
90.064131487226
 20
1667.696969696953
 11
79.593746099163
 21
1667.696969696953
  0
LINE
  5
63
100
AcDbEntity
  8
1
  6
CONTINUOUS
 62
           3
100
AcDbLine
 10
79.593746099163
 20
1667.696969696953
 11
82.026664844176
 21
1677.626932720839
  0
LINE
  5
62
100
AcDbEntity
  8
1
  6
CONTINUOUS
 62
           3
100
AcDbLine
 10
82.026664844176
 20
1677.626932720839
 11
92.497050232156
 21
1677.626932720839
  0
LINE
  5
61
100
AcDbEntity
  8
1
  6
CONTINUOUS
 62
           3
100
AcDbLine
 10
92.497050232156
 20
1677.626932720839
 11
93.581024291314
 21
1682.051175145079
  0
LINE
  5
60
100
AcDbEntity
  8
1
  6
CONTINUOUS
 62
           3
100
AcDbLine
 10
111.811859919322
 20
1670.990569084413
 11
114.521795067252
 21
1682.051175145079
  0
LINE
  5
5F
100
AcDbEntity
  8
1
  6
CONTINUOUS
 62
           3
100
AcDbLine
 10
114.521795067252
 20
1682.051175145079
 11
97.769178446531
 21
1682.051175145079
  0
LINE
  5
5E
100
AcDbEntity
  8
1
  6
CONTINUOUS
 62
           3
100
AcDbLine
 10
97.769178446531
 20
1682.051175145079
 11
89.916389405538
 21
1650.0
  0
LINE
  5
5D
100
AcDbEntity
  8
1
  6
CONTINUOUS
 62
           3
100
AcDbLine
 10
89.916389405538
 20
1650.0
 11
106.669006026292
 21
1650.0
  0
LINE
  5
5C
100
AcDbEntity
  8
1
  6
CONTINUOUS
 62
           3
100
AcDbLine
 10
106.669006026292
 20
1650.0
 11
109.378941174266
 21
1661.060606060608
  0
LINE
  5
5B
100
AcDbEntity
  8
1
  6
CONTINUOUS
 62
           3
100
AcDbLine
 10
109.378941174266
 20
1661.060606060608
 11
103.096709941478
 21
1661.060606060608
  0
LINE
  5
5A
100
AcDbEntity
  8
1
  6
CONTINUOUS
 62
           3
100
AcDbLine
 10
103.096709941478
 20
1661.060606060608
 11
101.470748852691
 21
1654.424242424182
  0
LINE
  5
59
100
AcDbEntity
  8
1
  6
CONTINUOUS
 62
           3
100
AcDbLine
 10
101.470748852691
 20
1654.424242424182
 11
97.282594697488
 21
1654.424242424182
  0
LINE
  5
58
100
AcDbEntity
  8
1
  6
CONTINUOUS
 62
           3
100
AcDbLine
 10
97.282594697488
 20
1654.424242424182
 11
102.967435620118
 21
1677.626932720839
  0
LINE
  5
57
100
AcDbEntity
  8
1
  6
CONTINUOUS
 62
           3
100
AcDbLine
 10
102.967435620118
 20
1677.626932720839
 11
107.15558977531
 21
1677.626932720839
  0
LINE
  5
56
100
AcDbEntity
  8
1
  6
CONTINUOUS
 62
           3
100
AcDbLine
 10
107.15558977531
 20
1677.626932720839
 11
105.529628686516
 21
1670.990569084413
  0
LINE
  5
55
100
AcDbEntity
  8
1
  6
CONTINUOUS
 62
           3
100
AcDbLine
 10
105.529628686516
 20
1670.990569084413
 11
111.811859919322
 21
1670.990569084413
  0
LINE
  5
54
100
AcDbEntity
  8
1
  6
CONTINUOUS
 62
           3
100
AcDbLine
 10
110.857160181473
 20
1650.0
 11
117.139391414261
 21
1650.0
  0
LINE
  5
53
100
AcDbEntity
  8
1
  6
CONTINUOUS
 62
           3
100
AcDbLine
 10
127.609776802336
 20
1650.0
 11
135.462565843351
 21
1682.051175145079
  0
LINE
  5
52
100
AcDbEntity
  8
1
  6
CONTINUOUS
 62
           3
100
AcDbLine
 10
121.327545569439
 20
1650.0
 11
124.711953060334
 21
1663.813466360341
  0
LINE
  5
51
100
AcDbEntity
  8
1
  6
CONTINUOUS
 62
           3
100
AcDbLine
 10
117.139391414261
 20
1650.0
 11
120.523798905146
 21
1663.813466360341
  0
LINE
  5
50
100
AcDbEntity
  8
1
  6
CONTINUOUS
 62
           3
100
AcDbLine
 10
118.709949222466
 20
1682.051175145079
 11
110.857160181473
 21
1650.0
  0
LINE
  5
4F
100
AcDbEntity
  8
1
  6
CONTINUOUS
 62
           3
100
AcDbLine
 10
135.462565843351
 20
1682.051175145079
 11
129.180334610435
 21
1682.051175145079
  0
LINE
  5
4E
100
AcDbEntity
  8
1
  6
CONTINUOUS
 62
           3
100
AcDbLine
 10
131.797930957462
 20
1650.0
 11
148.55054757827
 21
1650.0
  0
LINE
  5
4D
100
AcDbEntity
  8
1
  6
CONTINUOUS
 62
           3
100
AcDbLine
 10
143.352290404568
 20
1654.424242424182
 11
139.164136249467
 21
1654.424242424182
  0
LINE
  5
4C
100
AcDbEntity
  8
1
  6
CONTINUOUS
 62
           3
100
AcDbLine
 10
139.650719998459
 20
1682.051175145079
 11
131.797930957462
 21
1650.0
  0
LINE
  5
4B
100
AcDbEntity
  8
1
  6
CONTINUOUS
 62
           3
100
AcDbLine
 10
139.164136249467
 20
1654.424242424182
 11
144.848977172042
 21
1677.626932720839
  0
LINE
  5
4A
100
AcDbEntity
  8
1
  6
CONTINUOUS
 62
           3
100
AcDbLine
 10
156.403336619289
 20
1682.051175145079
 11
139.650719998459
 21
1682.051175145079
  0
LINE
  5
49
100
AcDbEntity
  8
1
  6
CONTINUOUS
 62
           3
100
AcDbLine
 10
144.848977172042
 20
1677.626932720839
 11
149.037131327292
 21
1677.626932720839
  0
LINE
  5
48
100
AcDbEntity
  8
1
  6
CONTINUOUS
 62
           3
100
AcDbLine
 10
149.037131327292
 20
1677.626932720839
 11
143.352290404568
 21
1654.424242424182
  0
LINE
  5
47
100
AcDbEntity
  8
1
  6
CONTINUOUS
 62
           3
100
AcDbLine
 10
156.403336619289
 20
1682.051175145079
 11
148.55054757827
 21
1650.0
  0
LINE
  5
46
100
AcDbEntity
  8
1
  6
CONTINUOUS
 62
           3
100
AcDbLine
 10
124.992180455331
 20
1682.051175145079
 11
118.709949222466
 21
1682.051175145079
  0
LINE
  5
45
100
AcDbEntity
  8
1
  6
CONTINUOUS
 62
           3
100
AcDbLine
 10
121.327545569439
 20
1650.0
 11
127.609776802336
 21
1650.0
  0
LINE
  5
44
100
AcDbEntity
  8
1
  6
CONTINUOUS
 62
           3
100
AcDbLine
 10
120.523798905146
 20
1663.813466360341
 11
124.711953060334
 21
1663.813466360341
  0
LINE
  5
43
100
AcDbEntity
  8
1
  6
CONTINUOUS
 62
           3
100
AcDbLine
 10
121.607772964315
 20
1668.237708784527
 11
125.795927119554
 21
1668.237708784527
  0
LINE
  5
42
100
AcDbEntity
  8
1
  6
CONTINUOUS
 62
           3
100
AcDbLine
 10
121.607772964315
 20
1668.237708784527
 11
124.992180455331
 21
1682.051175145079
  0
LINE
  5
41
100
AcDbEntity
  8
1
  6
CONTINUOUS
 62
           3
100
AcDbLine
 10
125.795927119554
 20
1668.237708784527
 11
129.180334610435
 21
1682.051175145079
  0
LINE
  5
40
100
AcDbEntity
  8
1
  6
CONTINUOUS
 62
           3
100
AcDbLine
 10
90.764903150884
 20
1698.762204858332
 11
90.032820381937
 21
1697.978447872363
  0
LINE
  5
3F
100
AcDbEntity
  8
1
  6
CONTINUOUS
 62
           3
100
AcDbLine
 10
90.328223469318
 20
1696.979895810782
 11
90.032820381937
 21
1697.978447872363
  0
ENDBLK
  5
F3
100
AcDbEntity
  8
0
100
AcDbBlockEnd
  0
BLOCK
  5
28
100
AcDbEntity
  8
0
100
AcDbBlockBegin
  2
DLX__2
 70
           0
 10
0.0
 20
0.0
 30
0.0
  3
DLX__2
  1

  0
CIRCLE
  5
1A7
100
AcDbEntity
  8
1
  6
CONTINUOUS
 62
           3
100
AcDbCircle
 10
197.735875237937
 20
995.878787878755
 40
5.530127989696
  0
CIRCLE
  5
1A6
100
AcDbEntity
  8
1
  6
CONTINUOUS
 62
           3
100
AcDbCircle
 10
197.735875237937
 20
995.878787878755
 40
5.972862778754
  0
ARC
  5
1A5
100
AcDbEntity
  8
1
  6
CONTINUOUS
 62
           3
100
AcDbCircle
 10
198.514586791596
 20
994.362233682226
 40
1.391870091328
100
AcDbArc
 50
-1.298612665727
 51
66.544866494048
  0
ARC
  5
1A4
100
AcDbEntity
  8
1
  6
CONTINUOUS
 62
           3
100
AcDbCircle
 10
197.789193605106
 20
994.053039389822
 40
1.155889798232
100
AcDbArc
 50
0.985058170485
 51
82.91825463293
  0
ARC
  5
1A3
100
AcDbEntity
  8
1
  6
CONTINUOUS
 62
           3
100
AcDbCircle
 10
197.864376243302
 20
997.264025930551
 40
1.257687287767
100
AcDbArc
 50
-74.800419047058
 51
80.931395238788
  0
ARC
  5
1A2
100
AcDbEntity
  8
1
  6
CONTINUOUS
 62
           3
100
AcDbCircle
 10
197.942694069316
 20
997.303919921381
 40
2.009798008862
100
AcDbArc
 50
-55.929988464575
 51
86.297888718259
  0
LINE
  5
1A1
100
AcDbEntity
  8
1
  6
CONTINUOUS
 62
           3
100
AcDbLine
 10
196.206636135699
 20
998.505992531278
 11
196.206636135699
 21
996.050334541276
  0
LINE
  5
1A0
100
AcDbEntity
  8
1
  6
CONTINUOUS
 62
           3
100
AcDbLine
 10
198.062609127785
 20
998.505992531278
 11
196.206636135699
 21
998.505992531278
  0
LINE
  5
19F
100
AcDbEntity
  8
1
  6
CONTINUOUS
 62
           3
100
AcDbLine
 10
196.206636135699
 20
996.050334541276
 11
198.194119363641
 21
996.050334541276
  0
LINE
  5
19E
100
AcDbEntity
  8
1
  6
CONTINUOUS
 62
           3
100
AcDbLine
 10
196.206636135699
 20
992.451055788282
 11
195.334188436584
 21
992.451055788282
  0
LINE
  5
19D
100
AcDbEntity
  8
1
  6
CONTINUOUS
 62
           3
100
AcDbLine
 10
197.931697837317
 20
995.200111213842
 11
196.206636135699
 21
995.200111213842
  0
LINE
  5
19C
100
AcDbEntity
  8
1
  6
CONTINUOUS
 62
           3
100
AcDbLine
 10
198.944912577237
 20
992.451055788282
 11
198.944912577237
 21
994.0729110559
  0
LINE
  5
19B
100
AcDbEntity
  8
1
  6
CONTINUOUS
 62
           3
100
AcDbLine
 10
199.906099392742
 20
992.451055788282
 11
198.944912577237
 21
992.451055788282
  0
LINE
  5
19A
100
AcDbEntity
  8
1
  6
CONTINUOUS
 62
           3
100
AcDbLine
 10
199.906099392742
 20
994.330689554626
 11
199.906099392742
 21
992.451055788282
  0
LINE
  5
199
100
AcDbEntity
  8
1
  6
CONTINUOUS
 62
           3
100
AcDbLine
 10
197.776108295824
 20
999.309523963456
 11
198.072464878176
 21
999.309523963456
  0
LINE
  5
198
100
AcDbEntity
  8
1
  6
CONTINUOUS
 62
           3
100
AcDbLine
 10
195.334188436584
 20
999.309523963456
 11
197.776108295824
 21
999.309523963456
  0
LINE
  5
197
100
AcDbEntity
  8
1
  6
CONTINUOUS
 62
           3
100
AcDbLine
 10
195.334188436584
 20
992.451055788282
 11
195.334188436584
 21
999.309523963456
  0
LINE
  5
196
100
AcDbEntity
  8
1
  6
CONTINUOUS
 62
           3
100
AcDbLine
 10
196.206636135699
 20
995.200111213842
 11
196.206636135699
 21
992.451055788282
  0
LINE
  5
195
100
AcDbEntity
  8
1
  6
CONTINUOUS
 62
           3
100
AcDbLine
 10
151.68540084903
 20
1001.38450847832
 11
149.591323771416
 21
1001.38450847832
  0
LINE
  5
194
100
AcDbEntity
  8
1
  6
CONTINUOUS
 62
           3
100
AcDbLine
 10
148.975465701067
 20
990.323902417793
 11
151.68540084903
 21
1001.38450847832
  0
LINE
  5
193
100
AcDbEntity
  8
1
  6
CONTINUOUS
 62
           3
100
AcDbLine
 10
159.445851089087
 20
990.323902417793
 11
148.975465701067
 21
990.323902417793
  0
LINE
  5
192
100
AcDbEntity
  8
1
  6
CONTINUOUS
 62
           3
100
AcDbLine
 10
158.903864059426
 20
988.111781205662
 11
159.445851089087
 21
990.323902417793
  0
LINE
  5
191
100
AcDbEntity
  8
1
  6
CONTINUOUS
 62
           3
100
AcDbLine
 10
146.339401593847
 20
988.111781205662
 11
158.903864059426
 21
988.111781205662
  0
LINE
  5
190
100
AcDbEntity
  8
1
  6
CONTINUOUS
 62
           3
100
AcDbLine
 10
149.591323771416
 20
1001.38450847832
 11
146.339401593847
 21
988.111781205662
  0
LINE
  5
18F
100
AcDbEntity
  8
1
  6
CONTINUOUS
 62
           3
100
AcDbLine
 10
136.144653716558
 20
992.536023629844
 11
139.900368855924
 21
999.172387266269
  0
LINE
  5
18E
100
AcDbEntity
  8
1
  6
CONTINUOUS
 62
           3
100
AcDbLine
 10
140.957172001214
 20
999.172387266269
 11
139.900368855924
 21
999.172387266269
  0
LINE
  5
18D
100
AcDbEntity
  8
1
  6
CONTINUOUS
 62
           3
100
AcDbLine
 10
141.460964963069
 20
992.536023629844
 11
140.957172001214
 21
999.172387266269
  0
LINE
  5
18C
100
AcDbEntity
  8
1
  6
CONTINUOUS
 62
           3
100
AcDbLine
 10
136.144653716558
 20
992.536023629844
 11
141.460964963069
 21
992.536023629844
  0
LINE
  5
18B
100
AcDbEntity
  8
1
  6
CONTINUOUS
 62
           3
100
AcDbLine
 10
133.640843623664
 20
988.111781205662
 11
131.262046635093
 21
988.111781205662
  0
LINE
  5
18A
100
AcDbEntity
  8
1
  6
CONTINUOUS
 62
           3
100
AcDbLine
 10
134.892748670027
 20
990.323902417793
 11
133.640843623664
 21
988.111781205662
  0
LINE
  5
189
100
AcDbEntity
  8
1
  6
CONTINUOUS
 62
           3
100
AcDbLine
 10
141.628895950391
 20
990.323902417793
 11
134.892748670027
 21
990.323902417793
  0
LINE
  5
188
100
AcDbEntity
  8
1
  6
CONTINUOUS
 62
           3
100
AcDbLine
 10
141.796826937658
 20
988.111781205662
 11
141.628895950391
 21
990.323902417793
  0
LINE
  5
187
100
AcDbEntity
  8
1
  6
CONTINUOUS
 62
           3
100
AcDbLine
 10
143.826509100727
 20
988.111781205662
 11
141.796826937658
 21
988.111781205662
  0
LINE
  5
186
100
AcDbEntity
  8
1
  6
CONTINUOUS
 62
           3
100
AcDbLine
 10
142.818923176965
 20
1001.38450847832
 11
143.826509100727
 21
988.111781205662
  0
LINE
  5
185
100
AcDbEntity
  8
1
  6
CONTINUOUS
 62
           3
100
AcDbLine
 10
138.77347691399
 20
1001.38450847832
 11
142.818923176965
 21
1001.38450847832
  0
LINE
  5
184
100
AcDbEntity
  8
1
  6
CONTINUOUS
 62
           3
100
AcDbLine
 10
131.262046635093
 20
988.111781205662
 11
138.77347691399
 21
1001.38450847832
  0
LINE
  5
183
100
AcDbEntity
  8
1
  6
CONTINUOUS
 62
           3
100
AcDbLine
 10
118.278768754059
 20
988.111781205662
 11
116.184691676499
 21
988.111781205662
  0
LINE
  5
182
100
AcDbEntity
  8
1
  6
CONTINUOUS
 62
           3
100
AcDbLine
 10
121.084771050988
 20
999.564485538598
 11
118.278768754059
 21
988.111781205662
  0
LINE
  5
181
100
AcDbEntity
  8
1
  6
CONTINUOUS
 62
           3
100
AcDbLine
 10
121.725319317498
 20
997.905394629535
 11
121.084771050988
 21
999.564485538598
  0
LINE
  5
180
100
AcDbEntity
  8
1
  6
CONTINUOUS
 62
           3
100
AcDbLine
 10
125.506475653208
 20
988.111781205662
 11
121.725319317498
 21
997.905394629535
  0
LINE
  5
17F
100
AcDbEntity
  8
1
  6
CONTINUOUS
 62
           3
100
AcDbLine
 10
128.749154141977
 20
988.111781205662
 11
125.506475653208
 21
988.111781205662
  0
LINE
  5
17E
100
AcDbEntity
  8
1
  6
CONTINUOUS
 62
           3
100
AcDbLine
 10
132.001076319597
 20
1001.38450847832
 11
128.749154141977
 21
988.111781205662
  0
LINE
  5
17D
100
AcDbEntity
  8
1
  6
CONTINUOUS
 62
           3
100
AcDbLine
 10
129.906999241983
 20
1001.38450847832
 11
132.001076319597
 21
1001.38450847832
  0
LINE
  5
17C
100
AcDbEntity
  8
1
  6
CONTINUOUS
 62
           3
100
AcDbLine
 10
127.06156733663
 20
989.770872114746
 11
129.906999241983
 21
1001.38450847832
  0
LINE
  5
17B
100
AcDbEntity
  8
1
  6
CONTINUOUS
 62
           3
100
AcDbLine
 10
122.577729470355
 20
1001.38450847832
 11
127.06156733663
 21
989.770872114746
  0
LINE
  5
17A
100
AcDbEntity
  8
1
  6
CONTINUOUS
 62
           3
100
AcDbLine
 10
119.436613854014
 20
1001.38450847832
 11
122.577729470355
 21
1001.38450847832
  0
LINE
  5
179
100
AcDbEntity
  8
1
  6
CONTINUOUS
 62
           3
100
AcDbLine
 10
116.184691676499
 20
988.111781205662
 11
119.436613854014
 21
1001.38450847832
  0
LINE
  5
178
100
AcDbEntity
  8
1
  6
CONTINUOUS
 62
           3
100
AcDbLine
 10
116.923721360898
 20
1001.38450847832
 11
114.829644283334
 21
1001.38450847832
  0
LINE
  5
177
100
AcDbEntity
  8
1
  6
CONTINUOUS
 62
           3
100
AcDbLine
 10
114.829644283334
 20
1001.38450847832
 11
111.577722105769
 21
988.111781205662
  0
LINE
  5
176
100
AcDbEntity
  8
1
  6
CONTINUOUS
 62
           3
100
AcDbLine
 10
113.671799183329
 20
988.111781205662
 11
116.923721360898
 21
1001.38450847832
  0
LINE
  5
175
100
AcDbEntity
  8
1
  6
CONTINUOUS
 62
           3
100
AcDbLine
 10
111.577722105769
 20
988.111781205662
 11
113.671799183329
 21
988.111781205662
  0
LINE
  5
174
100
AcDbEntity
  8
1
  6
CONTINUOUS
 62
           3
100
AcDbLine
 10
109.084501950522
 20
996.739053932891
 11
111.178579028048
 21
996.739053932891
  0
LINE
  5
173
100
AcDbEntity
  8
1
  6
CONTINUOUS
 62
           3
100
AcDbLine
 10
108.054726594372
 20
992.536023629844
 11
107.512739564605
 21
990.323902417793
  0
LINE
  5
172
100
AcDbEntity
  8
1
  6
CONTINUOUS
 62
           3
100
AcDbLine
 10
103.866572438972
 20
992.536023629844
 11
108.054726594372
 21
992.536023629844
  0
LINE
  5
171
100
AcDbEntity
  8
1
  6
CONTINUOUS
 62
           3
100
AcDbLine
 10
104.408559468619
 20
994.748144842033
 11
103.866572438972
 21
992.536023629844
  0
LINE
  5
170
100
AcDbEntity
  8
1
  6
CONTINUOUS
 62
           3
100
AcDbLine
 10
110.690790701425
 20
994.748144842033
 11
109.064829612653
 21
988.111781205662
  0
LINE
  5
16F
100
AcDbEntity
  8
1
  6
CONTINUOUS
 62
           3
100
AcDbLine
 10
110.690790701425
 20
994.748144842033
 11
104.408559468619
 21
994.748144842033
  0
LINE
  5
16E
100
AcDbEntity
  8
1
  6
CONTINUOUS
 62
           3
100
AcDbLine
 10
99.136431254276
 20
990.323902417793
 11
101.304379372603
 21
999.172387266269
  0
LINE
  5
16D
100
AcDbEntity
  8
1
  6
CONTINUOUS
 62
           3
100
AcDbLine
 10
101.304379372603
 20
999.172387266269
 11
109.6806876829
 21
999.172387266269
  0
LINE
  5
16C
100
AcDbEntity
  8
1
  6
CONTINUOUS
 62
           3
100
AcDbLine
 10
109.6806876829
 20
999.172387266269
 11
109.084501950522
 21
996.739053932891
  0
LINE
  5
16B
100
AcDbEntity
  8
1
  6
CONTINUOUS
 62
           3
100
AcDbLine
 10
107.512739564605
 20
990.323902417793
 11
99.136431254276
 21
990.323902417793
  0
LINE
  5
16A
100
AcDbEntity
  8
1
  6
CONTINUOUS
 62
           3
100
AcDbLine
 10
109.064829612653
 20
988.111781205662
 11
96.50036714704
 21
988.111781205662
  0
LINE
  5
169
100
AcDbEntity
  8
1
  6
CONTINUOUS
 62
           3
100
AcDbLine
 10
112.316751790175
 20
1001.38450847832
 11
111.178579028048
 21
996.739053932891
  0
LINE
  5
168
100
AcDbEntity
  8
1
  6
CONTINUOUS
 62
           3
100
AcDbLine
 10
99.752289324584
 20
1001.38450847832
 11
112.316751790175
 21
1001.38450847832
  0
LINE
  5
167
100
AcDbEntity
  8
1
  6
CONTINUOUS
 62
           3
100
AcDbLine
 10
96.50036714704
 20
988.111781205662
 11
99.752289324584
 21
1001.38450847832
  0
LINE
  5
166
100
AcDbEntity
  8
1
  6
CONTINUOUS
 62
           3
100
AcDbLine
 10
93.987474654055
 20
988.111781205662
 11
97.239396831465
 21
1001.38450847832
  0
LINE
  5
165
100
AcDbEntity
  8
1
  6
CONTINUOUS
 62
           3
100
AcDbLine
 10
91.893397576336
 20
988.111781205662
 11
93.987474654055
 21
988.111781205662
  0
LINE
  5
164
100
AcDbEntity
  8
1
  6
CONTINUOUS
 62
           3
100
AcDbLine
 10
95.145319753901
 20
1001.38450847832
 11
91.893397576336
 21
988.111781205662
  0
LINE
  5
163
100
AcDbEntity
  8
1
  6
CONTINUOUS
 62
           3
100
AcDbLine
 10
97.239396831465
 20
1001.38450847832
 11
95.145319753901
 21
1001.38450847832
  0
LINE
  5
162
100
AcDbEntity
  8
1
  6
CONTINUOUS
 62
           3
100
AcDbLine
 10
78.910119695298
 20
988.111781205662
 11
79.994093754409
 21
992.536023629844
  0
LINE
  5
161
100
AcDbEntity
  8
1
  6
CONTINUOUS
 62
           3
100
AcDbLine
 10
76.816042617622
 20
988.111781205662
 11
78.910119695298
 21
988.111781205662
  0
LINE
  5
160
100
AcDbEntity
  8
1
  6
CONTINUOUS
 62
           3
100
AcDbLine
 10
90.328223469318
 20
991.979895810782
 11
89.380505083205
 21
988.111781205662
  0
LINE
  5
15F
100
AcDbEntity
  8
1
  6
CONTINUOUS
 62
           3
100
AcDbLine
 10
81.620054843184
 20
999.172387266269
 11
80.536080784001
 21
994.748144842033
  0
LINE
  5
15E
100
AcDbEntity
  8
1
  6
CONTINUOUS
 62
           3
100
AcDbLine
 10
89.996363153703
 20
999.172387266269
 11
81.620054843184
 21
999.172387266269
  0
LINE
  5
15D
100
AcDbEntity
  8
1
  6
CONTINUOUS
 62
           3
100
AcDbLine
 10
88.912389094381
 20
994.748144842033
 11
89.996363153703
 21
999.172387266269
  0
LINE
  5
15C
100
AcDbEntity
  8
1
  6
CONTINUOUS
 62
           3
100
AcDbLine
 10
80.536080784001
 20
994.748144842033
 11
88.912389094381
 21
994.748144842033
  0
LINE
  5
15B
100
AcDbEntity
  8
1
  6
CONTINUOUS
 62
           3
100
AcDbLine
 10
88.370402064938
 20
992.536023629844
 11
79.994093754409
 21
992.536023629844
  0
LINE
  5
15A
100
AcDbEntity
  8
1
  6
CONTINUOUS
 62
           3
100
AcDbLine
 10
87.286428005566
 20
988.111781205662
 11
88.370402064938
 21
992.536023629844
  0
LINE
  5
159
100
AcDbEntity
  8
1
  6
CONTINUOUS
 62
           3
100
AcDbLine
 10
89.380505083205
 20
988.111781205662
 11
87.286428005566
 21
988.111781205662
  0
LINE
  5
158
100
AcDbEntity
  8
1
  6
CONTINUOUS
 62
           3
100
AcDbLine
 10
92.632427260738
 20
1001.38450847832
 11
90.764903150884
 21
993.762204858332
  0
LINE
  5
157
100
AcDbEntity
  8
1
  6
CONTINUOUS
 62
           3
100
AcDbLine
 10
80.067964795158
 20
1001.38450847832
 11
92.632427260738
 21
1001.38450847832
  0
LINE
  5
156
100
AcDbEntity
  8
1
  6
CONTINUOUS
 62
           3
100
AcDbLine
 10
80.067964795158
 20
1001.38450847832
 11
76.816042617622
 21
988.111781205662
  0
LINE
  5
155
100
AcDbEntity
  8
1
  6
CONTINUOUS
 62
           3
100
AcDbLine
 10
64.374751766132
 20
990.323902417793
 11
66.542699884474
 21
999.172387266269
  0
LINE
  5
154
100
AcDbEntity
  8
1
  6
CONTINUOUS
 62
           3
100
AcDbLine
 10
66.542699884474
 20
999.172387266269
 11
74.919008194964
 21
999.172387266269
  0
LINE
  5
153
100
AcDbEntity
  8
1
  6
CONTINUOUS
 62
           3
100
AcDbLine
 10
74.919008194964
 20
999.172387266269
 11
72.751060076487
 21
990.323902417793
  0
LINE
  5
152
100
AcDbEntity
  8
1
  6
CONTINUOUS
 62
           3
100
AcDbLine
 10
72.751060076487
 20
990.323902417793
 11
64.374751766132
 21
990.323902417793
  0
LINE
  5
151
100
AcDbEntity
  8
1
  6
CONTINUOUS
 62
           3
100
AcDbLine
 10
74.303150124491
 20
988.111781205662
 11
61.738687658966
 21
988.111781205662
  0
LINE
  5
150
100
AcDbEntity
  8
1
  6
CONTINUOUS
 62
           3
100
AcDbLine
 10
77.555072302166
 20
1001.38450847832
 11
74.303150124491
 21
988.111781205662
  0
LINE
  5
14F
100
AcDbEntity
  8
1
  6
CONTINUOUS
 62
           3
100
AcDbLine
 10
64.990609836448
 20
1001.38450847832
 11
77.555072302166
 21
1001.38450847832
  0
LINE
  5
14E
100
AcDbEntity
  8
1
  6
CONTINUOUS
 62
           3
100
AcDbLine
 10
61.738687658966
 20
988.111781205662
 11
64.990609836448
 21
1001.38450847832
  0
LINE
  5
14D
100
AcDbEntity
  8
1
  6
CONTINUOUS
 62
           3
100
AcDbLine
 10
205.329503152207
 20
945.0
 11
152.738701733397
 21
945.0
  0
LINE
  5
14C
100
AcDbEntity
  8
1
  6
CONTINUOUS
 62
           3
100
AcDbLine
 10
202.928830785688
 20
951.19393939391
 11
160.119681233515
 21
951.19393939391
  0
LINE
  5
14B
100
AcDbEntity
  8
1
  6
CONTINUOUS
 62
           3
100
AcDbLine
 10
202.928830785688
 20
951.19393939391
 11
205.329503152207
 21
945.0
  0
LINE
  5
14A
100
AcDbEntity
  8
1
  6
CONTINUOUS
 62
           3
100
AcDbLine
 10
195.686830708906
 20
969.878917066824
 11
192.906977584949
 21
977.051175145079
  0
LINE
  5
149
100
AcDbEntity
  8
1
  6
CONTINUOUS
 62
           3
100
AcDbLine
 10
201.284056889192
 20
977.051175145079
 11
195.686830708906
 21
969.878917066824
  0
LINE
  5
148
100
AcDbEntity
  8
1
  6
CONTINUOUS
 62
           3
100
AcDbLine
 10
205.32950315225
 20
977.051175145079
 11
201.284056889192
 21
977.051175145079
  0
LINE
  5
147
100
AcDbEntity
  8
1
  6
CONTINUOUS
 62
           3
100
AcDbLine
 10
197.029273107168
 20
966.415301218603
 11
205.32950315225
 21
977.051175145079
  0
LINE
  5
146
100
AcDbEntity
  8
1
  6
CONTINUOUS
 62
           3
100
AcDbLine
 10
201.899971200172
 20
953.848484848477
 11
197.029273107168
 21
966.415301218603
  0
LINE
  5
145
100
AcDbEntity
  8
1
  6
CONTINUOUS
 62
           3
100
AcDbLine
 10
197.854524937124
 20
953.848484848477
 11
201.899971200172
 21
953.848484848477
  0
LINE
  5
144
100
AcDbEntity
  8
1
  6
CONTINUOUS
 62
           3
100
AcDbLine
 10
194.32626924244
 20
962.951685370502
 11
197.854524937124
 21
953.848484848477
  0
LINE
  5
143
100
AcDbEntity
  8
1
  6
CONTINUOUS
 62
           3
100
AcDbLine
 10
187.222136662338
 20
953.848484848477
 11
194.32626924244
 21
962.951685370502
  0
LINE
  5
142
100
AcDbEntity
  8
1
  6
CONTINUOUS
 62
           3
100
AcDbLine
 10
183.176690399341
 20
953.848484848477
 11
187.222136662338
 21
953.848484848477
  0
LINE
  5
141
100
AcDbEntity
  8
1
  6
CONTINUOUS
 62
           3
100
AcDbLine
 10
192.983826844131
 20
966.415301218661
 11
183.176690399341
 21
953.848484848477
  0
LINE
  5
140
100
AcDbEntity
  8
1
  6
CONTINUOUS
 62
           3
100
AcDbLine
 10
188.861531321934
 20
977.051175145079
 11
192.983826844131
 21
966.415301218661
  0
LINE
  5
13F
100
AcDbEntity
  8
1
  6
CONTINUOUS
 62
           3
100
AcDbLine
 10
192.906977584949
 20
977.051175145079
 11
188.861531321934
 21
977.051175145079
  0
LINE
  5
13E
100
AcDbEntity
  8
1
  6
CONTINUOUS
 62
           3
100
AcDbLine
 10
175.878253440889
 20
977.051175145079
 11
170.643060746967
 21
977.051175145079
  0
LINE
  5
13D
100
AcDbEntity
  8
1
  6
CONTINUOUS
 62
           3
100
AcDbLine
 10
171.277386577538
 20
958.272727272797
 11
175.878253440889
 21
977.051175145079
  0
LINE
  5
13C
100
AcDbEntity
  8
1
  6
CONTINUOUS
 62
           3
100
AcDbLine
 10
176.51257927149
 20
958.272727272797
 11
171.277386577538
 21
958.272727272797
  0
LINE
  5
13B
100
AcDbEntity
  8
1
  6
CONTINUOUS
 62
           3
100
AcDbLine
 10
181.113446134885
 20
977.051175145079
 11
176.51257927149
 21
958.272727272797
  0
LINE
  5
13A
100
AcDbEntity
  8
1
  6
CONTINUOUS
 62
           3
100
AcDbLine
 10
186.348638828808
 20
977.051175145079
 11
181.113446134885
 21
977.051175145079
  0
LINE
  5
139
100
AcDbEntity
  8
1
  6
CONTINUOUS
 62
           3
100
AcDbLine
 10
180.6637979062
 20
953.848484848477
 11
186.348638828808
 21
977.051175145079
  0
LINE
  5
138
100
AcDbEntity
  8
1
  6
CONTINUOUS
 62
           3
100
AcDbLine
 10
164.958219824279
 20
953.848484848477
 11
180.6637979062
 21
953.848484848477
  0
LINE
  5
137
100
AcDbEntity
  8
1
  6
CONTINUOUS
 62
           3
100
AcDbLine
 10
170.643060746967
 20
977.051175145079
 11
164.958219824279
 21
953.848484848477
  0
LINE
  5
136
100
AcDbEntity
  8
1
  6
CONTINUOUS
 62
           3
100
AcDbLine
 10
163.301425922338
 20
988.111781205662
 11
152.738701733397
 21
945.0
  0
LINE
  5
135
100
AcDbEntity
  8
1
  6
CONTINUOUS
 62
           3
100
AcDbLine
 10
169.164841739606
 20
988.111781205662
 11
163.301425922338
 21
988.111781205662
  0
LINE
  5
134
100
AcDbEntity
  8
1
  6
CONTINUOUS
 62
           3
100
AcDbLine
 10
160.119681233515
 20
951.19393939391
 11
169.164841739606
 21
988.111781205662
  0
LINE
  5
133
100
AcDbEntity
  8
1
  6
CONTINUOUS
 62
           3
100
AcDbLine
 10
25.0
 20
945.0
 11
32.852789041055
 21
977.051175145079
  0
LINE
  5
132
100
AcDbEntity
  8
1
  6
CONTINUOUS
 62
           3
100
AcDbLine
 10
32.852789041055
 20
977.051175145079
 11
39.135020273752
 21
977.051175145079
  0
LINE
  5
131
100
AcDbEntity
  8
1
  6
CONTINUOUS
 62
           3
100
AcDbLine
 10
39.135020273752
 20
977.051175145079
 11
32.366205292063
 21
949.424242424182
  0
LINE
  5
130
100
AcDbEntity
  8
1
  6
CONTINUOUS
 62
           3
100
AcDbLine
 10
32.366205292063
 20
949.424242424182
 11
37.601397985942
 21
949.424242424182
  0
LINE
  5
12F
100
AcDbEntity
  8
1
  6
CONTINUOUS
 62
           3
100
AcDbLine
 10
37.601397985942
 20
949.424242424182
 11
45.725180541824
 21
982.581478175405
  0
LINE
  5
12E
100
AcDbEntity
  8
1
  6
CONTINUOUS
 62
           3
100
AcDbLine
 10
45.725180541824
 20
982.581478175405
 11
28.03408469729
 21
982.581478175405
  0
LINE
  5
12D
100
AcDbEntity
  8
1
  6
CONTINUOUS
 62
           3
100
AcDbLine
 10
28.03408469729
 20
982.581478175405
 11
29.389052271275
 21
988.111781205662
  0
LINE
  5
12C
100
AcDbEntity
  8
1
  6
CONTINUOUS
 62
           3
100
AcDbLine
 10
29.389052271275
 20
988.111781205662
 11
53.362379348568
 21
988.111781205662
  0
LINE
  5
12B
100
AcDbEntity
  8
1
  6
CONTINUOUS
 62
           3
100
AcDbLine
 10
53.362379348568
 20
988.111781205662
 11
42.799655159648
 21
945.0
  0
LINE
  5
12A
100
AcDbEntity
  8
1
  6
CONTINUOUS
 62
           3
100
AcDbLine
 10
42.799655159648
 20
945.0
 11
25.0
 21
945.0
  0
LINE
  5
129
100
AcDbEntity
  8
1
  6
CONTINUOUS
 62
           3
100
AcDbLine
 10
46.987809314775
 20
945.0
 11
54.840598355768
 21
977.051175145079
  0
LINE
  5
128
100
AcDbEntity
  8
1
  6
CONTINUOUS
 62
           3
100
AcDbLine
 10
54.840598355768
 20
977.051175145079
 11
61.122829588578
 21
977.051175145079
  0
LINE
  5
127
100
AcDbEntity
  8
1
  6
CONTINUOUS
 62
           3
100
AcDbLine
 10
61.122829588578
 20
977.051175145079
 11
54.354014606783
 21
949.424242424182
  0
LINE
  5
126
100
AcDbEntity
  8
1
  6
CONTINUOUS
 62
           3
100
AcDbLine
 10
54.354014606783
 20
949.424242424182
 11
59.589207300767
 21
949.424242424182
  0
LINE
  5
125
100
AcDbEntity
  8
1
  6
CONTINUOUS
 62
           3
100
AcDbLine
 10
59.589207300767
 20
949.424242424182
 11
66.358022282573
 21
977.051175145079
  0
LINE
  5
124
100
AcDbEntity
  8
1
  6
CONTINUOUS
 62
           3
100
AcDbLine
 10
64.787464474364
 20
945.0
 11
46.987809314775
 21
945.0
  0
LINE
  5
123
100
AcDbEntity
  8
1
  6
CONTINUOUS
 62
           3
100
AcDbLine
 10
66.358022282573
 20
977.051175145079
 11
72.640253515379
 21
977.051175145079
  0
LINE
  5
122
100
AcDbEntity
  8
1
  6
CONTINUOUS
 62
           3
100
AcDbLine
 10
72.640253515379
 20
977.051175145079
 11
64.787464474364
 21
945.0
  0
LINE
  5
121
100
AcDbEntity
  8
1
  6
CONTINUOUS
 62
           3
100
AcDbLine
 10
93.581024291314
 20
977.051175145079
 11
76.828407670542
 21
977.051175145079
  0
LINE
  5
120
100
AcDbEntity
  8
1
  6
CONTINUOUS
 62
           3
100
AcDbLine
 10
76.828407670542
 20
977.051175145079
 11
72.227540807151
 21
958.272727272797
  0
LINE
  5
11F
100
AcDbEntity
  8
1
  6
CONTINUOUS
 62
           3
100
AcDbLine
 10
72.227540807151
 20
958.272727272797
 11
82.697926195116
 21
958.272727272797
  0
LINE
  5
11E
100
AcDbEntity
  8
1
  6
CONTINUOUS
 62
           3
100
AcDbLine
 10
82.697926195116
 20
958.272727272797
 11
80.529978076698
 21
949.424242424182
  0
LINE
  5
11D
100
AcDbEntity
  8
1
  6
CONTINUOUS
 62
           3
100
AcDbLine
 10
80.529978076698
 20
949.424242424182
 11
70.059592688787
 21
949.424242424182
  0
LINE
  5
11C
100
AcDbEntity
  8
1
  6
CONTINUOUS
 62
           3
100
AcDbLine
 10
70.059592688787
 20
949.424242424182
 11
68.97561862948
 21
945.0
  0
LINE
  5
11B
100
AcDbEntity
  8
1
  6
CONTINUOUS
 62
           3
100
AcDbLine
 10
68.97561862948
 20
945.0
 11
85.728235250303
 21
945.0
  0
LINE
  5
11A
100
AcDbEntity
  8
1
  6
CONTINUOUS
 62
           3
100
AcDbLine
 10
85.728235250303
 20
945.0
 11
90.064131487226
 21
962.696969696953
  0
LINE
  5
119
100
AcDbEntity
  8
1
  6
CONTINUOUS
 62
           3
100
AcDbLine
 10
90.064131487226
 20
962.696969696953
 11
79.593746099163
 21
962.696969696953
  0
LINE
  5
118
100
AcDbEntity
  8
1
  6
CONTINUOUS
 62
           3
100
AcDbLine
 10
79.593746099163
 20
962.696969696953
 11
82.026664844176
 21
972.626932720839
  0
LINE
  5
117
100
AcDbEntity
  8
1
  6
CONTINUOUS
 62
           3
100
AcDbLine
 10
82.026664844176
 20
972.626932720839
 11
92.497050232156
 21
972.626932720839
  0
LINE
  5
116
100
AcDbEntity
  8
1
  6
CONTINUOUS
 62
           3
100
AcDbLine
 10
92.497050232156
 20
972.626932720839
 11
93.581024291314
 21
977.051175145079
  0
LINE
  5
115
100
AcDbEntity
  8
1
  6
CONTINUOUS
 62
           3
100
AcDbLine
 10
111.811859919322
 20
965.990569084413
 11
114.521795067252
 21
977.051175145079
  0
LINE
  5
114
100
AcDbEntity
  8
1
  6
CONTINUOUS
 62
           3
100
AcDbLine
 10
114.521795067252
 20
977.051175145079
 11
97.769178446531
 21
977.051175145079
  0
LINE
  5
113
100
AcDbEntity
  8
1
  6
CONTINUOUS
 62
           3
100
AcDbLine
 10
97.769178446531
 20
977.051175145079
 11
89.916389405538
 21
945.0
  0
LINE
  5
112
100
AcDbEntity
  8
1
  6
CONTINUOUS
 62
           3
100
AcDbLine
 10
89.916389405538
 20
945.0
 11
106.669006026292
 21
945.0
  0
LINE
  5
111
100
AcDbEntity
  8
1
  6
CONTINUOUS
 62
           3
100
AcDbLine
 10
106.669006026292
 20
945.0
 11
109.378941174266
 21
956.060606060608
  0
LINE
  5
110
100
AcDbEntity
  8
1
  6
CONTINUOUS
 62
           3
100
AcDbLine
 10
109.378941174266
 20
956.060606060608
 11
103.096709941478
 21
956.060606060608
  0
LINE
  5
10F
100
AcDbEntity
  8
1
  6
CONTINUOUS
 62
           3
100
AcDbLine
 10
103.096709941478
 20
956.060606060608
 11
101.470748852691
 21
949.424242424182
  0
LINE
  5
10E
100
AcDbEntity
  8
1
  6
CONTINUOUS
 62
           3
100
AcDbLine
 10
101.470748852691
 20
949.424242424182
 11
97.282594697488
 21
949.424242424182
  0
LINE
  5
10D
100
AcDbEntity
  8
1
  6
CONTINUOUS
 62
           3
100
AcDbLine
 10
97.282594697488
 20
949.424242424182
 11
102.967435620118
 21
972.626932720839
  0
LINE
  5
10C
100
AcDbEntity
  8
1
  6
CONTINUOUS
 62
           3
100
AcDbLine
 10
102.967435620118
 20
972.626932720839
 11
107.15558977531
 21
972.626932720839
  0
LINE
  5
10B
100
AcDbEntity
  8
1
  6
CONTINUOUS
 62
           3
100
AcDbLine
 10
107.15558977531
 20
972.626932720839
 11
105.529628686516
 21
965.990569084413
  0
LINE
  5
10A
100
AcDbEntity
  8
1
  6
CONTINUOUS
 62
           3
100
AcDbLine
 10
105.529628686516
 20
965.990569084413
 11
111.811859919322
 21
965.990569084413
  0
LINE
  5
109
100
AcDbEntity
  8
1
  6
CONTINUOUS
 62
           3
100
AcDbLine
 10
110.857160181473
 20
945.0
 11
117.139391414261
 21
945.0
  0
LINE
  5
108
100
AcDbEntity
  8
1
  6
CONTINUOUS
 62
           3
100
AcDbLine
 10
127.609776802336
 20
945.0
 11
135.462565843351
 21
977.051175145079
  0
LINE
  5
107
100
AcDbEntity
  8
1
  6
CONTINUOUS
 62
           3
100
AcDbLine
 10
121.327545569439
 20
945.0
 11
124.711953060334
 21
958.813466360341
  0
LINE
  5
106
100
AcDbEntity
  8
1
  6
CONTINUOUS
 62
           3
100
AcDbLine
 10
117.139391414261
 20
945.0
 11
120.523798905146
 21
958.813466360341
  0
LINE
  5
105
100
AcDbEntity
  8
1
  6
CONTINUOUS
 62
           3
100
AcDbLine
 10
118.709949222466
 20
977.051175145079
 11
110.857160181473
 21
945.0
  0
LINE
  5
104
100
AcDbEntity
  8
1
  6
CONTINUOUS
 62
           3
100
AcDbLine
 10
135.462565843351
 20
977.051175145079
 11
129.180334610435
 21
977.051175145079
  0
LINE
  5
103
100
AcDbEntity
  8
1
  6
CONTINUOUS
 62
           3
100
AcDbLine
 10
131.797930957462
 20
945.0
 11
148.55054757827
 21
945.0
  0
LINE
  5
102
100
AcDbEntity
  8
1
  6
CONTINUOUS
 62
           3
100
AcDbLine
 10
143.352290404568
 20
949.424242424182
 11
139.164136249467
 21
949.424242424182
  0
LINE
  5
101
100
AcDbEntity
  8
1
  6
CONTINUOUS
 62
           3
100
AcDbLine
 10
139.650719998459
 20
977.051175145079
 11
131.797930957462
 21
945.0
  0
LINE
  5
100
100
AcDbEntity
  8
1
  6
CONTINUOUS
 62
           3
100
AcDbLine
 10
139.164136249467
 20
949.424242424182
 11
144.848977172042
 21
972.626932720839
  0
LINE
  5
FF
100
AcDbEntity
  8
1
  6
CONTINUOUS
 62
           3
100
AcDbLine
 10
156.403336619289
 20
977.051175145079
 11
139.650719998459
 21
977.051175145079
  0
LINE
  5
FE
100
AcDbEntity
  8
1
  6
CONTINUOUS
 62
           3
100
AcDbLine
 10
144.848977172042
 20
972.626932720839
 11
149.037131327292
 21
972.626932720839
  0
LINE
  5
FD
100
AcDbEntity
  8
1
  6
CONTINUOUS
 62
           3
100
AcDbLine
 10
149.037131327292
 20
972.626932720839
 11
143.352290404568
 21
949.424242424182
  0
LINE
  5
FC
100
AcDbEntity
  8
1
  6
CONTINUOUS
 62
           3
100
AcDbLine
 10
156.403336619289
 20
977.051175145079
 11
148.55054757827
 21
945.0
  0
LINE
  5
FB
100
AcDbEntity
  8
1
  6
CONTINUOUS
 62
           3
100
AcDbLine
 10
124.992180455331
 20
977.051175145079
 11
118.709949222466
 21
977.051175145079
  0
LINE
  5
FA
100
AcDbEntity
  8
1
  6
CONTINUOUS
 62
           3
100
AcDbLine
 10
121.327545569439
 20
945.0
 11
127.609776802336
 21
945.0
  0
LINE
  5
F9
100
AcDbEntity
  8
1
  6
CONTINUOUS
 62
           3
100
AcDbLine
 10
120.523798905146
 20
958.813466360341
 11
124.711953060334
 21
958.813466360341
  0
LINE
  5
F8
100
AcDbEntity
  8
1
  6
CONTINUOUS
 62
           3
100
AcDbLine
 10
121.607772964315
 20
963.237708784527
 11
125.795927119554
 21
963.237708784527
  0
LINE
  5
F7
100
AcDbEntity
  8
1
  6
CONTINUOUS
 62
           3
100
AcDbLine
 10
121.607772964315
 20
963.237708784527
 11
124.992180455331
 21
977.051175145079
  0
LINE
  5
F6
100
AcDbEntity
  8
1
  6
CONTINUOUS
 62
           3
100
AcDbLine
 10
125.795927119554
 20
963.237708784527
 11
129.180334610435
 21
977.051175145079
  0
LINE
  5
F5
100
AcDbEntity
  8
1
  6
CONTINUOUS
 62
           3
100
AcDbLine
 10
90.764903150884
 20
993.762204858332
 11
90.032820381937
 21
992.978447872363
  0
LINE
  5
F4
100
AcDbEntity
  8
1
  6
CONTINUOUS
 62
           3
100
AcDbLine
 10
90.328223469318
 20
991.979895810782
 11
90.032820381937
 21
992.978447872363
  0
ENDBLK
  5
1A8
100
AcDbEntity
  8
0
100
AcDbBlockEnd
  0
BLOCK
  5
2A
100
AcDbEntity
  8
0
100
AcDbBlockBegin
  2
DLX__3
 70
           0
 10
0.0
 20
0.0
 30
0.0
  3
DLX__3
  1

  0
CIRCLE
  5
25C
100
AcDbEntity
  8
1
  6
CONTINUOUS
 62
           3
100
AcDbCircle
 10
197.735875237937
 20
210.878787878755
 40
5.972862778754
  0
CIRCLE
  5
25B
100
AcDbEntity
  8
1
  6
CONTINUOUS
 62
           3
100
AcDbCircle
 10
197.735875237937
 20
210.878787878755
 40
5.530127989696
  0
ARC
  5
25A
100
AcDbEntity
  8
1
  6
CONTINUOUS
 62
           3
100
AcDbCircle
 10
197.942694069316
 20
212.303919921381
 40
2.009798008862
100
AcDbArc
 50
-55.929988464576
 51
86.297888718259
  0
ARC
  5
259
100
AcDbEntity
  8
1
  6
CONTINUOUS
 62
           3
100
AcDbCircle
 10
197.864376243302
 20
212.264025930551
 40
1.257687287767
100
AcDbArc
 50
-74.800419047058
 51
80.931395238788
  0
ARC
  5
258
100
AcDbEntity
  8
1
  6
CONTINUOUS
 62
           3
100
AcDbCircle
 10
197.789193605106
 20
209.053039389822
 40
1.155889798232
100
AcDbArc
 50
0.985058170482
 51
82.91825463293
  0
ARC
  5
257
100
AcDbEntity
  8
1
  6
CONTINUOUS
 62
           3
100
AcDbCircle
 10
198.514586791596
 20
209.362233682226
 40
1.391870091328
100
AcDbArc
 50
-1.298612665727
 51
66.544866494047
  0
LINE
  5
256
100
AcDbEntity
  8
1
  6
CONTINUOUS
 62
           3
100
AcDbLine
 10
90.328223469318
 20
206.979895810782
 11
90.032820381937
 21
207.978447872363
  0
LINE
  5
255
100
AcDbEntity
  8
1
  6
CONTINUOUS
 62
           3
100
AcDbLine
 10
90.764903150884
 20
208.762204858332
 11
90.032820381937
 21
207.978447872363
  0
LINE
  5
254
100
AcDbEntity
  8
1
  6
CONTINUOUS
 62
           3
100
AcDbLine
 10
125.795927119554
 20
178.237708784527
 11
129.180334610435
 21
192.051175145079
  0
LINE
  5
253
100
AcDbEntity
  8
1
  6
CONTINUOUS
 62
           3
100
AcDbLine
 10
121.607772964315
 20
178.237708784527
 11
124.992180455331
 21
192.051175145079
  0
LINE
  5
252
100
AcDbEntity
  8
1
  6
CONTINUOUS
 62
           3
100
AcDbLine
 10
121.607772964315
 20
178.237708784527
 11
125.795927119554
 21
178.237708784527
  0
LINE
  5
251
100
AcDbEntity
  8
1
  6
CONTINUOUS
 62
           3
100
AcDbLine
 10
120.523798905146
 20
173.813466360341
 11
124.711953060334
 21
173.813466360341
  0
LINE
  5
250
100
AcDbEntity
  8
1
  6
CONTINUOUS
 62
           3
100
AcDbLine
 10
121.327545569439
 20
160.0
 11
127.609776802336
 21
160.0
  0
LINE
  5
24F
100
AcDbEntity
  8
1
  6
CONTINUOUS
 62
           3
100
AcDbLine
 10
124.992180455331
 20
192.051175145079
 11
118.709949222466
 21
192.051175145079
  0
LINE
  5
24E
100
AcDbEntity
  8
1
  6
CONTINUOUS
 62
           3
100
AcDbLine
 10
156.403336619289
 20
192.051175145079
 11
148.55054757827
 21
160.0
  0
LINE
  5
24D
100
AcDbEntity
  8
1
  6
CONTINUOUS
 62
           3
100
AcDbLine
 10
149.037131327292
 20
187.626932720839
 11
143.352290404568
 21
164.424242424182
  0
LINE
  5
24C
100
AcDbEntity
  8
1
  6
CONTINUOUS
 62
           3
100
AcDbLine
 10
144.848977172042
 20
187.626932720839
 11
149.037131327292
 21
187.626932720839
  0
LINE
  5
24B
100
AcDbEntity
  8
1
  6
CONTINUOUS
 62
           3
100
AcDbLine
 10
156.403336619289
 20
192.051175145079
 11
139.650719998459
 21
192.051175145079
  0
LINE
  5
24A
100
AcDbEntity
  8
1
  6
CONTINUOUS
 62
           3
100
AcDbLine
 10
139.164136249467
 20
164.424242424182
 11
144.848977172042
 21
187.626932720839
  0
LINE
  5
249
100
AcDbEntity
  8
1
  6
CONTINUOUS
 62
           3
100
AcDbLine
 10
139.650719998459
 20
192.051175145079
 11
131.797930957462
 21
160.0
  0
LINE
  5
248
100
AcDbEntity
  8
1
  6
CONTINUOUS
 62
           3
100
AcDbLine
 10
143.352290404568
 20
164.424242424182
 11
139.164136249467
 21
164.424242424182
  0
LINE
  5
247
100
AcDbEntity
  8
1
  6
CONTINUOUS
 62
           3
100
AcDbLine
 10
131.797930957462
 20
160.0
 11
148.55054757827
 21
160.0
  0
LINE
  5
246
100
AcDbEntity
  8
1
  6
CONTINUOUS
 62
           3
100
AcDbLine
 10
135.462565843351
 20
192.051175145079
 11
129.180334610435
 21
192.051175145079
  0
LINE
  5
245
100
AcDbEntity
  8
1
  6
CONTINUOUS
 62
           3
100
AcDbLine
 10
118.709949222466
 20
192.051175145079
 11
110.857160181473
 21
160.0
  0
LINE
  5
244
100
AcDbEntity
  8
1
  6
CONTINUOUS
 62
           3
100
AcDbLine
 10
117.139391414261
 20
160.0
 11
120.523798905146
 21
173.813466360341
  0
LINE
  5
243
100
AcDbEntity
  8
1
  6
CONTINUOUS
 62
           3
100
AcDbLine
 10
121.327545569439
 20
160.0
 11
124.711953060334
 21
173.813466360341
  0
LINE
  5
242
100
AcDbEntity
  8
1
  6
CONTINUOUS
 62
           3
100
AcDbLine
 10
127.609776802336
 20
160.0
 11
135.462565843351
 21
192.051175145079
  0
LINE
  5
241
100
AcDbEntity
  8
1
  6
CONTINUOUS
 62
           3
100
AcDbLine
 10
110.857160181473
 20
160.0
 11
117.139391414261
 21
160.0
  0
LINE
  5
240
100
AcDbEntity
  8
1
  6
CONTINUOUS
 62
           3
100
AcDbLine
 10
105.529628686516
 20
180.990569084413
 11
111.811859919322
 21
180.990569084413
  0
LINE
  5
23F
100
AcDbEntity
  8
1
  6
CONTINUOUS
 62
           3
100
AcDbLine
 10
107.15558977531
 20
187.626932720839
 11
105.529628686516
 21
180.990569084413
  0
LINE
  5
23E
100
AcDbEntity
  8
1
  6
CONTINUOUS
 62
           3
100
AcDbLine
 10
102.967435620118
 20
187.626932720839
 11
107.15558977531
 21
187.626932720839
  0
LINE
  5
23D
100
AcDbEntity
  8
1
  6
CONTINUOUS
 62
           3
100
AcDbLine
 10
97.282594697488
 20
164.424242424182
 11
102.967435620118
 21
187.626932720839
  0
LINE
  5
23C
100
AcDbEntity
  8
1
  6
CONTINUOUS
 62
           3
100
AcDbLine
 10
101.470748852691
 20
164.424242424182
 11
97.282594697488
 21
164.424242424182
  0
LINE
  5
23B
100
AcDbEntity
  8
1
  6
CONTINUOUS
 62
           3
100
AcDbLine
 10
103.096709941478
 20
171.060606060608
 11
101.470748852691
 21
164.424242424182
  0
LINE
  5
23A
100
AcDbEntity
  8
1
  6
CONTINUOUS
 62
           3
100
AcDbLine
 10
109.378941174266
 20
171.060606060608
 11
103.096709941478
 21
171.060606060608
  0
LINE
  5
239
100
AcDbEntity
  8
1
  6
CONTINUOUS
 62
           3
100
AcDbLine
 10
106.669006026292
 20
160.0
 11
109.378941174266
 21
171.060606060608
  0
LINE
  5
238
100
AcDbEntity
  8
1
  6
CONTINUOUS
 62
           3
100
AcDbLine
 10
89.916389405538
 20
160.0
 11
106.669006026292
 21
160.0
  0
LINE
  5
237
100
AcDbEntity
  8
1
  6
CONTINUOUS
 62
           3
100
AcDbLine
 10
97.769178446531
 20
192.051175145079
 11
89.916389405538
 21
160.0
  0
LINE
  5
236
100
AcDbEntity
  8
1
  6
CONTINUOUS
 62
           3
100
AcDbLine
 10
114.521795067252
 20
192.051175145079
 11
97.769178446531
 21
192.051175145079
  0
LINE
  5
235
100
AcDbEntity
  8
1
  6
CONTINUOUS
 62
           3
100
AcDbLine
 10
111.811859919322
 20
180.990569084413
 11
114.521795067252
 21
192.051175145079
  0
LINE
  5
234
100
AcDbEntity
  8
1
  6
CONTINUOUS
 62
           3
100
AcDbLine
 10
92.497050232156
 20
187.626932720839
 11
93.581024291314
 21
192.051175145079
  0
LINE
  5
233
100
AcDbEntity
  8
1
  6
CONTINUOUS
 62
           3
100
AcDbLine
 10
82.026664844176
 20
187.626932720839
 11
92.497050232156
 21
187.626932720839
  0
LINE
  5
232
100
AcDbEntity
  8
1
  6
CONTINUOUS
 62
           3
100
AcDbLine
 10
79.593746099163
 20
177.696969696953
 11
82.026664844176
 21
187.626932720839
  0
LINE
  5
231
100
AcDbEntity
  8
1
  6
CONTINUOUS
 62
           3
100
AcDbLine
 10
90.064131487226
 20
177.696969696953
 11
79.593746099163
 21
177.696969696953
  0
LINE
  5
230
100
AcDbEntity
  8
1
  6
CONTINUOUS
 62
           3
100
AcDbLine
 10
85.728235250303
 20
160.0
 11
90.064131487226
 21
177.696969696953
  0
LINE
  5
22F
100
AcDbEntity
  8
1
  6
CONTINUOUS
 62
           3
100
AcDbLine
 10
68.97561862948
 20
160.0
 11
85.728235250303
 21
160.0
  0
LINE
  5
22E
100
AcDbEntity
  8
1
  6
CONTINUOUS
 62
           3
100
AcDbLine
 10
70.059592688787
 20
164.424242424182
 11
68.97561862948
 21
160.0
  0
LINE
  5
22D
100
AcDbEntity
  8
1
  6
CONTINUOUS
 62
           3
100
AcDbLine
 10
80.529978076698
 20
164.424242424182
 11
70.059592688787
 21
164.424242424182
  0
LINE
  5
22C
100
AcDbEntity
  8
1
  6
CONTINUOUS
 62
           3
100
AcDbLine
 10
82.697926195116
 20
173.272727272797
 11
80.529978076698
 21
164.424242424182
  0
LINE
  5
22B
100
AcDbEntity
  8
1
  6
CONTINUOUS
 62
           3
100
AcDbLine
 10
72.227540807151
 20
173.272727272797
 11
82.697926195116
 21
173.272727272797
  0
LINE
  5
22A
100
AcDbEntity
  8
1
  6
CONTINUOUS
 62
           3
100
AcDbLine
 10
76.828407670542
 20
192.051175145079
 11
72.227540807151
 21
173.272727272797
  0
LINE
  5
229
100
AcDbEntity
  8
1
  6
CONTINUOUS
 62
           3
100
AcDbLine
 10
93.581024291314
 20
192.051175145079
 11
76.828407670542
 21
192.051175145079
  0
LINE
  5
228
100
AcDbEntity
  8
1
  6
CONTINUOUS
 62
           3
100
AcDbLine
 10
72.640253515379
 20
192.051175145079
 11
64.787464474364
 21
160.0
  0
LINE
  5
227
100
AcDbEntity
  8
1
  6
CONTINUOUS
 62
           3
100
AcDbLine
 10
66.358022282573
 20
192.051175145079
 11
72.640253515379
 21
192.051175145079
  0
LINE
  5
226
100
AcDbEntity
  8
1
  6
CONTINUOUS
 62
           3
100
AcDbLine
 10
64.787464474364
 20
160.0
 11
46.987809314775
 21
160.0
  0
LINE
  5
225
100
AcDbEntity
  8
1
  6
CONTINUOUS
 62
           3
100
AcDbLine
 10
59.589207300767
 20
164.424242424182
 11
66.358022282573
 21
192.051175145079
  0
LINE
  5
224
100
AcDbEntity
  8
1
  6
CONTINUOUS
 62
           3
100
AcDbLine
 10
54.354014606783
 20
164.424242424182
 11
59.589207300767
 21
164.424242424182
  0
LINE
  5
223
100
AcDbEntity
  8
1
  6
CONTINUOUS
 62
           3
100
AcDbLine
 10
61.122829588578
 20
192.051175145079
 11
54.354014606783
 21
164.424242424182
  0
LINE
  5
222
100
AcDbEntity
  8
1
  6
CONTINUOUS
 62
           3
100
AcDbLine
 10
54.840598355768
 20
192.051175145079
 11
61.122829588578
 21
192.051175145079
  0
LINE
  5
221
100
AcDbEntity
  8
1
  6
CONTINUOUS
 62
           3
100
AcDbLine
 10
46.987809314775
 20
160.0
 11
54.840598355768
 21
192.051175145079
  0
LINE
  5
220
100
AcDbEntity
  8
1
  6
CONTINUOUS
 62
           3
100
AcDbLine
 10
42.799655159648
 20
160.0
 11
25.0
 21
160.0
  0
LINE
  5
21F
100
AcDbEntity
  8
1
  6
CONTINUOUS
 62
           3
100
AcDbLine
 10
53.362379348568
 20
203.111781205662
 11
42.799655159648
 21
160.0
  0
LINE
  5
21E
100
AcDbEntity
  8
1
  6
CONTINUOUS
 62
           3
100
AcDbLine
 10
29.389052271275
 20
203.111781205662
 11
53.362379348568
 21
203.111781205662
  0
LINE
  5
21D
100
AcDbEntity
  8
1
  6
CONTINUOUS
 62
           3
100
AcDbLine
 10
28.03408469729
 20
197.581478175405
 11
29.389052271275
 21
203.111781205662
  0
LINE
  5
21C
100
AcDbEntity
  8
1
  6
CONTINUOUS
 62
           3
100
AcDbLine
 10
45.725180541824
 20
197.581478175405
 11
28.03408469729
 21
197.581478175405
  0
LINE
  5
21B
100
AcDbEntity
  8
1
  6
CONTINUOUS
 62
           3
100
AcDbLine
 10
37.601397985942
 20
164.424242424182
 11
45.725180541824
 21
197.581478175405
  0
LINE
  5
21A
100
AcDbEntity
  8
1
  6
CONTINUOUS
 62
           3
100
AcDbLine
 10
32.366205292063
 20
164.424242424182
 11
37.601397985942
 21
164.424242424182
  0
LINE
  5
219
100
AcDbEntity
  8
1
  6
CONTINUOUS
 62
           3
100
AcDbLine
 10
39.135020273752
 20
192.051175145079
 11
32.366205292063
 21
164.424242424182
  0
LINE
  5
218
100
AcDbEntity
  8
1
  6
CONTINUOUS
 62
           3
100
AcDbLine
 10
32.852789041055
 20
192.051175145079
 11
39.135020273752
 21
192.051175145079
  0
LINE
  5
217
100
AcDbEntity
  8
1
  6
CONTINUOUS
 62
           3
100
AcDbLine
 10
25.0
 20
160.0
 11
32.852789041055
 21
192.051175145079
  0
LINE
  5
216
100
AcDbEntity
  8
1
  6
CONTINUOUS
 62
           3
100
AcDbLine
 10
160.119681233515
 20
166.19393939391
 11
169.164841739606
 21
203.111781205662
  0
LINE
  5
215
100
AcDbEntity
  8
1
  6
CONTINUOUS
 62
           3
100
AcDbLine
 10
169.164841739606
 20
203.111781205662
 11
163.301425922338
 21
203.111781205662
  0
LINE
  5
214
100
AcDbEntity
  8
1
  6
CONTINUOUS
 62
           3
100
AcDbLine
 10
163.301425922338
 20
203.111781205662
 11
152.738701733397
 21
160.0
  0
LINE
  5
213
100
AcDbEntity
  8
1
  6
CONTINUOUS
 62
           3
100
AcDbLine
 10
170.643060746967
 20
192.051175145079
 11
164.958219824279
 21
168.848484848477
  0
LINE
  5
212
100
AcDbEntity
  8
1
  6
CONTINUOUS
 62
           3
100
AcDbLine
 10
164.958219824279
 20
168.848484848477
 11
180.6637979062
 21
168.848484848477
  0
LINE
  5
211
100
AcDbEntity
  8
1
  6
CONTINUOUS
 62
           3
100
AcDbLine
 10
180.6637979062
 20
168.848484848477
 11
186.348638828808
 21
192.051175145079
  0
LINE
  5
210
100
AcDbEntity
  8
1
  6
CONTINUOUS
 62
           3
100
AcDbLine
 10
186.348638828808
 20
192.051175145079
 11
181.113446134885
 21
192.051175145079
  0
LINE
  5
20F
100
AcDbEntity
  8
1
  6
CONTINUOUS
 62
           3
100
AcDbLine
 10
181.113446134885
 20
192.051175145079
 11
176.51257927149
 21
173.272727272797
  0
LINE
  5
20E
100
AcDbEntity
  8
1
  6
CONTINUOUS
 62
           3
100
AcDbLine
 10
176.51257927149
 20
173.272727272797
 11
171.277386577538
 21
173.272727272797
  0
LINE
  5
20D
100
AcDbEntity
  8
1
  6
CONTINUOUS
 62
           3
100
AcDbLine
 10
171.277386577538
 20
173.272727272797
 11
175.878253440889
 21
192.051175145079
  0
LINE
  5
20C
100
AcDbEntity
  8
1
  6
CONTINUOUS
 62
           3
100
AcDbLine
 10
175.878253440889
 20
192.051175145079
 11
170.643060746967
 21
192.051175145079
  0
LINE
  5
20B
100
AcDbEntity
  8
1
  6
CONTINUOUS
 62
           3
100
AcDbLine
 10
192.906977584949
 20
192.051175145079
 11
188.861531321934
 21
192.051175145079
  0
LINE
  5
20A
100
AcDbEntity
  8
1
  6
CONTINUOUS
 62
           3
100
AcDbLine
 10
188.861531321934
 20
192.051175145079
 11
192.983826844131
 21
181.415301218661
  0
LINE
  5
209
100
AcDbEntity
  8
1
  6
CONTINUOUS
 62
           3
100
AcDbLine
 10
192.983826844131
 20
181.415301218661
 11
183.176690399341
 21
168.848484848477
  0
LINE
  5
208
100
AcDbEntity
  8
1
  6
CONTINUOUS
 62
           3
100
AcDbLine
 10
183.176690399341
 20
168.848484848477
 11
187.222136662338
 21
168.848484848477
  0
LINE
  5
207
100
AcDbEntity
  8
1
  6
CONTINUOUS
 62
           3
100
AcDbLine
 10
187.222136662338
 20
168.848484848477
 11
194.32626924244
 21
177.951685370502
  0
LINE
  5
206
100
AcDbEntity
  8
1
  6
CONTINUOUS
 62
           3
100
AcDbLine
 10
194.32626924244
 20
177.951685370502
 11
197.854524937124
 21
168.848484848477
  0
LINE
  5
205
100
AcDbEntity
  8
1
  6
CONTINUOUS
 62
           3
100
AcDbLine
 10
197.854524937124
 20
168.848484848477
 11
201.899971200172
 21
168.848484848477
  0
LINE
  5
204
100
AcDbEntity
  8
1
  6
CONTINUOUS
 62
           3
100
AcDbLine
 10
201.899971200172
 20
168.848484848477
 11
197.029273107168
 21
181.415301218603
  0
LINE
  5
203
100
AcDbEntity
  8
1
  6
CONTINUOUS
 62
           3
100
AcDbLine
 10
197.029273107168
 20
181.415301218603
 11
205.32950315225
 21
192.051175145079
  0
LINE
  5
202
100
AcDbEntity
  8
1
  6
CONTINUOUS
 62
           3
100
AcDbLine
 10
205.32950315225
 20
192.051175145079
 11
201.284056889192
 21
192.051175145079
  0
LINE
  5
201
100
AcDbEntity
  8
1
  6
CONTINUOUS
 62
           3
100
AcDbLine
 10
201.284056889192
 20
192.051175145079
 11
195.686830708906
 21
184.878917066824
  0
LINE
  5
200
100
AcDbEntity
  8
1
  6
CONTINUOUS
 62
           3
100
AcDbLine
 10
195.686830708906
 20
184.878917066824
 11
192.906977584949
 21
192.051175145079
  0
LINE
  5
1FF
100
AcDbEntity
  8
1
  6
CONTINUOUS
 62
           3
100
AcDbLine
 10
202.928830785688
 20
166.19393939391
 11
205.329503152207
 21
160.0
  0
LINE
  5
1FE
100
AcDbEntity
  8
1
  6
CONTINUOUS
 62
           3
100
AcDbLine
 10
202.928830785688
 20
166.19393939391
 11
160.119681233515
 21
166.19393939391
  0
LINE
  5
1FD
100
AcDbEntity
  8
1
  6
CONTINUOUS
 62
           3
100
AcDbLine
 10
205.329503152207
 20
160.0
 11
152.738701733397
 21
160.0
  0
LINE
  5
1FC
100
AcDbEntity
  8
1
  6
CONTINUOUS
 62
           3
100
AcDbLine
 10
61.738687658966
 20
203.111781205662
 11
64.990609836448
 21
216.38450847832
  0
LINE
  5
1FB
100
AcDbEntity
  8
1
  6
CONTINUOUS
 62
           3
100
AcDbLine
 10
64.990609836448
 20
216.38450847832
 11
77.555072302166
 21
216.38450847832
  0
LINE
  5
1FA
100
AcDbEntity
  8
1
  6
CONTINUOUS
 62
           3
100
AcDbLine
 10
77.555072302166
 20
216.38450847832
 11
74.303150124491
 21
203.111781205662
  0
LINE
  5
1F9
100
AcDbEntity
  8
1
  6
CONTINUOUS
 62
           3
100
AcDbLine
 10
74.303150124491
 20
203.111781205662
 11
61.738687658966
 21
203.111781205662
  0
LINE
  5
1F8
100
AcDbEntity
  8
1
  6
CONTINUOUS
 62
           3
100
AcDbLine
 10
72.751060076487
 20
205.323902417793
 11
64.374751766132
 21
205.323902417793
  0
LINE
  5
1F7
100
AcDbEntity
  8
1
  6
CONTINUOUS
 62
           3
100
AcDbLine
 10
74.919008194964
 20
214.172387266269
 11
72.751060076487
 21
205.323902417793
  0
LINE
  5
1F6
100
AcDbEntity
  8
1
  6
CONTINUOUS
 62
           3
100
AcDbLine
 10
66.542699884474
 20
214.172387266269
 11
74.919008194964
 21
214.172387266269
  0
LINE
  5
1F5
100
AcDbEntity
  8
1
  6
CONTINUOUS
 62
           3
100
AcDbLine
 10
64.374751766132
 20
205.323902417793
 11
66.542699884474
 21
214.172387266269
  0
LINE
  5
1F4
100
AcDbEntity
  8
1
  6
CONTINUOUS
 62
           3
100
AcDbLine
 10
80.067964795158
 20
216.38450847832
 11
76.816042617622
 21
203.111781205662
  0
LINE
  5
1F3
100
AcDbEntity
  8
1
  6
CONTINUOUS
 62
           3
100
AcDbLine
 10
80.067964795158
 20
216.38450847832
 11
92.632427260738
 21
216.38450847832
  0
LINE
  5
1F2
100
AcDbEntity
  8
1
  6
CONTINUOUS
 62
           3
100
AcDbLine
 10
92.632427260738
 20
216.38450847832
 11
90.764903150884
 21
208.762204858332
  0
LINE
  5
1F1
100
AcDbEntity
  8
1
  6
CONTINUOUS
 62
           3
100
AcDbLine
 10
89.380505083205
 20
203.111781205662
 11
87.286428005566
 21
203.111781205662
  0
LINE
  5
1F0
100
AcDbEntity
  8
1
  6
CONTINUOUS
 62
           3
100
AcDbLine
 10
87.286428005566
 20
203.111781205662
 11
88.370402064938
 21
207.536023629844
  0
LINE
  5
1EF
100
AcDbEntity
  8
1
  6
CONTINUOUS
 62
           3
100
AcDbLine
 10
88.370402064938
 20
207.536023629844
 11
79.994093754409
 21
207.536023629844
  0
LINE
  5
1EE
100
AcDbEntity
  8
1
  6
CONTINUOUS
 62
           3
100
AcDbLine
 10
80.536080784001
 20
209.748144842033
 11
88.912389094381
 21
209.748144842033
  0
LINE
  5
1ED
100
AcDbEntity
  8
1
  6
CONTINUOUS
 62
           3
100
AcDbLine
 10
88.912389094381
 20
209.748144842033
 11
89.996363153703
 21
214.172387266269
  0
LINE
  5
1EC
100
AcDbEntity
  8
1
  6
CONTINUOUS
 62
           3
100
AcDbLine
 10
89.996363153703
 20
214.172387266269
 11
81.620054843184
 21
214.172387266269
  0
LINE
  5
1EB
100
AcDbEntity
  8
1
  6
CONTINUOUS
 62
           3
100
AcDbLine
 10
81.620054843184
 20
214.172387266269
 11
80.536080784001
 21
209.748144842033
  0
LINE
  5
1EA
100
AcDbEntity
  8
1
  6
CONTINUOUS
 62
           3
100
AcDbLine
 10
90.328223469318
 20
206.979895810782
 11
89.380505083205
 21
203.111781205662
  0
LINE
  5
1E9
100
AcDbEntity
  8
1
  6
CONTINUOUS
 62
           3
100
AcDbLine
 10
76.816042617622
 20
203.111781205662
 11
78.910119695298
 21
203.111781205662
  0
LINE
  5
1E8
100
AcDbEntity
  8
1
  6
CONTINUOUS
 62
           3
100
AcDbLine
 10
78.910119695298
 20
203.111781205662
 11
79.994093754409
 21
207.536023629844
  0
LINE
  5
1E7
100
AcDbEntity
  8
1
  6
CONTINUOUS
 62
           3
100
AcDbLine
 10
97.239396831465
 20
216.38450847832
 11
95.145319753901
 21
216.38450847832
  0
LINE
  5
1E6
100
AcDbEntity
  8
1
  6
CONTINUOUS
 62
           3
100
AcDbLine
 10
95.145319753901
 20
216.38450847832
 11
91.893397576336
 21
203.111781205662
  0
LINE
  5
1E5
100
AcDbEntity
  8
1
  6
CONTINUOUS
 62
           3
100
AcDbLine
 10
91.893397576336
 20
203.111781205662
 11
93.987474654055
 21
203.111781205662
  0
LINE
  5
1E4
100
AcDbEntity
  8
1
  6
CONTINUOUS
 62
           3
100
AcDbLine
 10
93.987474654055
 20
203.111781205662
 11
97.239396831465
 21
216.38450847832
  0
LINE
  5
1E3
100
AcDbEntity
  8
1
  6
CONTINUOUS
 62
           3
100
AcDbLine
 10
96.50036714704
 20
203.111781205662
 11
99.752289324584
 21
216.38450847832
  0
LINE
  5
1E2
100
AcDbEntity
  8
1
  6
CONTINUOUS
 62
           3
100
AcDbLine
 10
99.752289324584
 20
216.38450847832
 11
112.316751790175
 21
216.38450847832
  0
LINE
  5
1E1
100
AcDbEntity
  8
1
  6
CONTINUOUS
 62
           3
100
AcDbLine
 10
112.316751790175
 20
216.38450847832
 11
111.178579028048
 21
211.739053932891
  0
LINE
  5
1E0
100
AcDbEntity
  8
1
  6
CONTINUOUS
 62
           3
100
AcDbLine
 10
109.064829612653
 20
203.111781205662
 11
96.50036714704
 21
203.111781205662
  0
LINE
  5
1DF
100
AcDbEntity
  8
1
  6
CONTINUOUS
 62
           3
100
AcDbLine
 10
107.512739564605
 20
205.323902417793
 11
99.136431254276
 21
205.323902417793
  0
LINE
  5
1DE
100
AcDbEntity
  8
1
  6
CONTINUOUS
 62
           3
100
AcDbLine
 10
109.6806876829
 20
214.172387266269
 11
109.084501950522
 21
211.739053932891
  0
LINE
  5
1DD
100
AcDbEntity
  8
1
  6
CONTINUOUS
 62
           3
100
AcDbLine
 10
101.304379372603
 20
214.172387266269
 11
109.6806876829
 21
214.172387266269
  0
LINE
  5
1DC
100
AcDbEntity
  8
1
  6
CONTINUOUS
 62
           3
100
AcDbLine
 10
99.136431254276
 20
205.323902417793
 11
101.304379372603
 21
214.172387266269
  0
LINE
  5
1DB
100
AcDbEntity
  8
1
  6
CONTINUOUS
 62
           3
100
AcDbLine
 10
110.690790701425
 20
209.748144842033
 11
104.408559468619
 21
209.748144842033
  0
LINE
  5
1DA
100
AcDbEntity
  8
1
  6
CONTINUOUS
 62
           3
100
AcDbLine
 10
110.690790701425
 20
209.748144842033
 11
109.064829612653
 21
203.111781205662
  0
LINE
  5
1D9
100
AcDbEntity
  8
1
  6
CONTINUOUS
 62
           3
100
AcDbLine
 10
104.408559468619
 20
209.748144842033
 11
103.866572438972
 21
207.536023629844
  0
LINE
  5
1D8
100
AcDbEntity
  8
1
  6
CONTINUOUS
 62
           3
100
AcDbLine
 10
103.866572438972
 20
207.536023629844
 11
108.054726594372
 21
207.536023629844
  0
LINE
  5
1D7
100
AcDbEntity
  8
1
  6
CONTINUOUS
 62
           3
100
AcDbLine
 10
108.054726594372
 20
207.536023629844
 11
107.512739564605
 21
205.323902417793
  0
LINE
  5
1D6
100
AcDbEntity
  8
1
  6
CONTINUOUS
 62
           3
100
AcDbLine
 10
109.084501950522
 20
211.739053932891
 11
111.178579028048
 21
211.739053932891
  0
LINE
  5
1D5
100
AcDbEntity
  8
1
  6
CONTINUOUS
 62
           3
100
AcDbLine
 10
111.577722105769
 20
203.111781205662
 11
113.671799183329
 21
203.111781205662
  0
LINE
  5
1D4
100
AcDbEntity
  8
1
  6
CONTINUOUS
 62
           3
100
AcDbLine
 10
113.671799183329
 20
203.111781205662
 11
116.923721360898
 21
216.38450847832
  0
LINE
  5
1D3
100
AcDbEntity
  8
1
  6
CONTINUOUS
 62
           3
100
AcDbLine
 10
114.829644283334
 20
216.38450847832
 11
111.577722105769
 21
203.111781205662
  0
LINE
  5
1D2
100
AcDbEntity
  8
1
  6
CONTINUOUS
 62
           3
100
AcDbLine
 10
116.923721360898
 20
216.38450847832
 11
114.829644283334
 21
216.38450847832
  0
LINE
  5
1D1
100
AcDbEntity
  8
1
  6
CONTINUOUS
 62
           3
100
AcDbLine
 10
116.184691676499
 20
203.111781205662
 11
119.436613854014
 21
216.38450847832
  0
LINE
  5
1D0
100
AcDbEntity
  8
1
  6
CONTINUOUS
 62
           3
100
AcDbLine
 10
119.436613854014
 20
216.38450847832
 11
122.577729470355
 21
216.38450847832
  0
LINE
  5
1CF
100
AcDbEntity
  8
1
  6
CONTINUOUS
 62
           3
100
AcDbLine
 10
122.577729470355
 20
216.38450847832
 11
127.06156733663
 21
204.770872114746
  0
LINE
  5
1CE
100
AcDbEntity
  8
1
  6
CONTINUOUS
 62
           3
100
AcDbLine
 10
127.06156733663
 20
204.770872114746
 11
129.906999241983
 21
216.38450847832
  0
LINE
  5
1CD
100
AcDbEntity
  8
1
  6
CONTINUOUS
 62
           3
100
AcDbLine
 10
129.906999241983
 20
216.38450847832
 11
132.001076319597
 21
216.38450847832
  0
LINE
  5
1CC
100
AcDbEntity
  8
1
  6
CONTINUOUS
 62
           3
100
AcDbLine
 10
132.001076319597
 20
216.38450847832
 11
128.749154141977
 21
203.111781205662
  0
LINE
  5
1CB
100
AcDbEntity
  8
1
  6
CONTINUOUS
 62
           3
100
AcDbLine
 10
128.749154141977
 20
203.111781205662
 11
125.506475653208
 21
203.111781205662
  0
LINE
  5
1CA
100
AcDbEntity
  8
1
  6
CONTINUOUS
 62
           3
100
AcDbLine
 10
125.506475653208
 20
203.111781205662
 11
121.725319317498
 21
212.905394629535
  0
LINE
  5
1C9
100
AcDbEntity
  8
1
  6
CONTINUOUS
 62
           3
100
AcDbLine
 10
121.725319317498
 20
212.905394629535
 11
121.084771050988
 21
214.564485538598
  0
LINE
  5
1C8
100
AcDbEntity
  8
1
  6
CONTINUOUS
 62
           3
100
AcDbLine
 10
121.084771050988
 20
214.564485538598
 11
118.278768754059
 21
203.111781205662
  0
LINE
  5
1C7
100
AcDbEntity
  8
1
  6
CONTINUOUS
 62
           3
100
AcDbLine
 10
118.278768754059
 20
203.111781205662
 11
116.184691676499
 21
203.111781205662
  0
LINE
  5
1C6
100
AcDbEntity
  8
1
  6
CONTINUOUS
 62
           3
100
AcDbLine
 10
131.262046635093
 20
203.111781205662
 11
138.77347691399
 21
216.38450847832
  0
LINE
  5
1C5
100
AcDbEntity
  8
1
  6
CONTINUOUS
 62
           3
100
AcDbLine
 10
138.77347691399
 20
216.38450847832
 11
142.818923176965
 21
216.38450847832
  0
LINE
  5
1C4
100
AcDbEntity
  8
1
  6
CONTINUOUS
 62
           3
100
AcDbLine
 10
142.818923176965
 20
216.38450847832
 11
143.826509100727
 21
203.111781205662
  0
LINE
  5
1C3
100
AcDbEntity
  8
1
  6
CONTINUOUS
 62
           3
100
AcDbLine
 10
143.826509100727
 20
203.111781205662
 11
141.796826937658
 21
203.111781205662
  0
LINE
  5
1C2
100
AcDbEntity
  8
1
  6
CONTINUOUS
 62
           3
100
AcDbLine
 10
141.796826937658
 20
203.111781205662
 11
141.628895950391
 21
205.323902417793
  0
LINE
  5
1C1
100
AcDbEntity
  8
1
  6
CONTINUOUS
 62
           3
100
AcDbLine
 10
141.628895950391
 20
205.323902417793
 11
134.892748670027
 21
205.323902417793
  0
LINE
  5
1C0
100
AcDbEntity
  8
1
  6
CONTINUOUS
 62
           3
100
AcDbLine
 10
134.892748670027
 20
205.323902417793
 11
133.640843623664
 21
203.111781205662
  0
LINE
  5
1BF
100
AcDbEntity
  8
1
  6
CONTINUOUS
 62
           3
100
AcDbLine
 10
133.640843623664
 20
203.111781205662
 11
131.262046635093
 21
203.111781205662
  0
LINE
  5
1BE
100
AcDbEntity
  8
1
  6
CONTINUOUS
 62
           3
100
AcDbLine
 10
136.144653716558
 20
207.536023629844
 11
141.460964963069
 21
207.536023629844
  0
LINE
  5
1BD
100
AcDbEntity
  8
1
  6
CONTINUOUS
 62
           3
100
AcDbLine
 10
141.460964963069
 20
207.536023629844
 11
140.957172001214
 21
214.172387266269
  0
LINE
  5
1BC
100
AcDbEntity
  8
1
  6
CONTINUOUS
 62
           3
100
AcDbLine
 10
140.957172001214
 20
214.172387266269
 11
139.900368855924
 21
214.172387266269
  0
LINE
  5
1BB
100
AcDbEntity
  8
1
  6
CONTINUOUS
 62
           3
100
AcDbLine
 10
136.144653716558
 20
207.536023629844
 11
139.900368855924
 21
214.172387266269
  0
LINE
  5
1BA
100
AcDbEntity
  8
1
  6
CONTINUOUS
 62
           3
100
AcDbLine
 10
149.591323771416
 20
216.38450847832
 11
146.339401593847
 21
203.111781205662
  0
LINE
  5
1B9
100
AcDbEntity
  8
1
  6
CONTINUOUS
 62
           3
100
AcDbLine
 10
146.339401593847
 20
203.111781205662
 11
158.903864059426
 21
203.111781205662
  0
LINE
  5
1B8
100
AcDbEntity
  8
1
  6
CONTINUOUS
 62
           3
100
AcDbLine
 10
158.903864059426
 20
203.111781205662
 11
159.445851089087
 21
205.323902417793
  0
LINE
  5
1B7
100
AcDbEntity
  8
1
  6
CONTINUOUS
 62
           3
100
AcDbLine
 10
159.445851089087
 20
205.323902417793
 11
148.975465701067
 21
205.323902417793
  0
LINE
  5
1B6
100
AcDbEntity
  8
1
  6
CONTINUOUS
 62
           3
100
AcDbLine
 10
148.975465701067
 20
205.323902417793
 11
151.68540084903
 21
216.38450847832
  0
LINE
  5
1B5
100
AcDbEntity
  8
1
  6
CONTINUOUS
 62
           3
100
AcDbLine
 10
151.68540084903
 20
216.38450847832
 11
149.591323771416
 21
216.38450847832
  0
LINE
  5
1B4
100
AcDbEntity
  8
1
  6
CONTINUOUS
 62
           3
100
AcDbLine
 10
196.206636135699
 20
210.200111213842
 11
196.206636135699
 21
207.451055788282
  0
LINE
  5
1B3
100
AcDbEntity
  8
1
  6
CONTINUOUS
 62
           3
100
AcDbLine
 10
195.334188436584
 20
207.451055788282
 11
195.334188436584
 21
214.309523963456
  0
LINE
  5
1B2
100
AcDbEntity
  8
1
  6
CONTINUOUS
 62
           3
100
AcDbLine
 10
195.334188436584
 20
214.309523963456
 11
197.776108295824
 21
214.309523963456
  0
LINE
  5
1B1
100
AcDbEntity
  8
1
  6
CONTINUOUS
 62
           3
100
AcDbLine
 10
197.776108295824
 20
214.309523963456
 11
198.072464878176
 21
214.309523963456
  0
LINE
  5
1B0
100
AcDbEntity
  8
1
  6
CONTINUOUS
 62
           3
100
AcDbLine
 10
199.906099392742
 20
209.330689554626
 11
199.906099392742
 21
207.451055788282
  0
LINE
  5
1AF
100
AcDbEntity
  8
1
  6
CONTINUOUS
 62
           3
100
AcDbLine
 10
199.906099392742
 20
207.451055788282
 11
198.944912577237
 21
207.451055788282
  0
LINE
  5
1AE
100
AcDbEntity
  8
1
  6
CONTINUOUS
 62
           3
100
AcDbLine
 10
198.944912577237
 20
207.451055788282
 11
198.944912577237
 21
209.0729110559
  0
LINE
  5
1AD
100
AcDbEntity
  8
1
  6
CONTINUOUS
 62
           3
100
AcDbLine
 10
197.931697837317
 20
210.200111213842
 11
196.206636135699
 21
210.200111213842
  0
LINE
  5
1AC
100
AcDbEntity
  8
1
  6
CONTINUOUS
 62
           3
100
AcDbLine
 10
196.206636135699
 20
207.451055788282
 11
195.334188436584
 21
207.451055788282
  0
LINE
  5
1AB
100
AcDbEntity
  8
1
  6
CONTINUOUS
 62
           3
100
AcDbLine
 10
196.206636135699
 20
211.050334541276
 11
198.194119363641
 21
211.050334541276
  0
LINE
  5
1AA
100
AcDbEntity
  8
1
  6
CONTINUOUS
 62
           3
100
AcDbLine
 10
198.062609127785
 20
213.505992531278
 11
196.206636135699
 21
213.505992531278
  0
LINE
  5
1A9
100
AcDbEntity
  8
1
  6
CONTINUOUS
 62
           3
100
AcDbLine
 10
196.206636135699
 20
213.505992531278
 11
196.206636135699
 21
211.050334541276
  0
ENDBLK
  5
25D
100
AcDbEntity
  8
0
100
AcDbBlockEnd
  0
BLOCK
  5
2C
100
AcDbEntity
  8
0
100
AcDbBlockBegin
  2
EINBAUSET
 70
           0
 10
0.0
 20
0.0
 30
0.0
  3
EINBAUSET
  1

  0
HATCH
  5
269
100
AcDbEntity
  8
0
  6
DASHED
 62
           1
100
AcDbHatch
 10
0.0
 20
0.0
 30
0.0
210
0.0
220
0.0
230
1.0
  2
USER
 70
           0
 71
           1
 91
        1
 92
        1
 93
        5
 72
           1
 10
1195.027624309394
 20
130.0
 11
1150.10470832698
 21
130.0
 72
           1
 10
1195.027624309394
 20
130.0
 11
1195.027624309394
 21
0.0
 72
           1
 10
655.83750821950093
 20
-0.0000000000001137
 11
1195.027624309394
 21
0.0
 72
           1
 10
655.83750821950093
 20
107.0937498564126
 11
655.83750821950093
 21
-0.0000000000001137
 72
           1
 10
1150.10470832698
 20
130.0
 11
655.83750821950093
 21
107.0937498564126
 97
        5
330
263
330
267
330
25E
330
260
330
262
 75
           1
 76
           0
 52
135.0
 41
50.0
 77
           0
 78
           2
 53
135.0
 43
0.0
 44
0.0
 45
-35.355339059327378
 46
-35.35533905932737
 79
           2
 49
12.0
 49
-3.0
 53
135.0
 43
0.0
 44
0.0
 45
-35.355339059327378
 46
-35.35533905932737
 79
           0
 98
        1
 10
0.0
 20
0.0
  0
HATCH
  5
268
100
AcDbEntity
  8
0
  6
DASHED
 62
           1
100
AcDbHatch
 10
0.0
 20
0.0
 30
0.0
210
0.0
220
0.0
230
1.0
  2
USER
 70
           0
 71
           1
 91
        1
 92
        1
 93
        5
 72
           1
 10
544.16249178049168
 20
107.093749856413
 11
544.16249178049179
 21
0.0
 72
           1
 10
4.9723756906059862
 20
0.0
 11
544.16249178049179
 21
0.0
 72
           1
 10
4.9723756906059862
 20
130.0
 11
4.9723756906059862
 21
0.0
 72
           1
 10
4.9723756906059862
 20
130.0
 11
49.895291673020317
 21
130.0
 72
           1
 10
544.16249178049168
 20
107.093749856413
 11
49.895291673020317
 21
130.0
 97
        5
330
25F
330
265
330
266
330
264
330
261
 75
           1
 76
           0
 52
135.0
 41
50.0
 77
           0
 78
           2
 53
135.0
 43
0.0
 44
0.0
 45
-35.355339059327378
 46
-35.35533905932737
 79
           2
 49
12.0
 49
-3.0
 53
135.0
 43
0.0
 44
0.0
 45
-35.355339059327378
 46
-35.35533905932737
 79
           0
 98
        1
 10
0.0
 20
0.0
  0
LINE
  5
267
100
AcDbEntity
  8
1
  6
CONTINUOUS
 62
           3
100
AcDbLine
 10
1195.027624309394
 20
130.0
 11
1195.027624309394
 21
0.0
  0
LINE
  5
266
100
AcDbEntity
  8
1
  6
CONTINUOUS
 62
           3
100
AcDbLine
 10
4.972375690606
 20
130.0
 11
4.972375690606
 21
0.0
  0
LINE
  5
265
100
AcDbEntity
  8
1
  6
CONTINUOUS
 62
           3
100
AcDbLine
 10
4.972375690606
 20
0.0
 11
544.162491780492
 21
0.0
  0
LINE
  5
264
100
AcDbEntity
  8
1
  6
CONTINUOUS
 62
           3
100
AcDbLine
 10
4.972375690606
 20
130.0
 11
49.89529167302
 21
130.0
  0
LINE
  5
263
100
AcDbEntity
  8
1
  6
CONTINUOUS
 62
           3
100
AcDbLine
 10
1195.027624309394
 20
130.0
 11
1150.10470832698
 21
130.0
  0
LINE
  5
262
100
AcDbEntity
  8
1
  6
CONTINUOUS
 62
           3
100
AcDbLine
 10
1150.10470832698
 20
130.0
 11
655.837508219501
 21
107.093749856413
  0
LINE
  5
261
100
AcDbEntity
  8
1
  6
CONTINUOUS
 62
           3
100
AcDbLine
 10
544.162491780492
 20
107.093749856413
 11
49.89529167302
 21
130.0
  0
LINE
  5
260
100
AcDbEntity
  8
1
  6
CONTINUOUS
 62
           3
100
AcDbLine
 10
655.837508219501
 20
107.093749856413
 11
655.837508219501
 21
0.0
  0
LINE
  5
25F
100
AcDbEntity
  8
1
  6
CONTINUOUS
 62
           3
100
AcDbLine
 10
544.162491780492
 20
107.093749856413
 11
544.162491780492
 21
0.0
  0
LINE
  5
25E
100
AcDbEntity
  8
1
  6
CONTINUOUS
 62
           3
100
AcDbLine
 10
655.837508219501
 20
0.0
 11
1195.027624309394
 21
0.0
  0
ENDBLK
  5
26A
100
AcDbEntity
  8
0
100
AcDbBlockEnd
  0
BLOCK
  5
2E
100
AcDbEntity
  8
0
100
AcDbBlockBegin
  2
WANNE_FREE_BASE_1200X900_4
 70
           0
 10
0.0
 20
0.0
 30
0.0
  3
WANNE_FREE_BASE_1200X900_4
  1

  0
LINE
  5
27D
100
AcDbEntity
  8
1
  6
CONTINUOUS
 62
           7
100
AcDbLine
 10
0.0
 20
100.0
 11
552.616492999998
 21
100.0
  0
LINE
  5
27C
100
AcDbEntity
  8
1
  6
CONTINUOUS
 62
           7
100
AcDbLine
 10
647.383506999998
 20
100.0
 11
1200.0
 21
100.0
  0
LINE
  5
27B
100
AcDbEntity
  8
1
  6
CONTINUOUS
 62
           7
100
AcDbLine
 10
0.0
 20
135.0
 11
1200.0
 21
135.0
  0
LINE
  5
27A
100
AcDbEntity
  8
1
  6
CONTINUOUS
 62
           7
100
AcDbLine
 10
0.0
 20
100.0
 11
0.0
 21
135.0
  0
LINE
  5
279
100
AcDbEntity
  8
1
  6
CONTINUOUS
 62
           7
100
AcDbLine
 10
1200.0
 20
100.0
 11
1200.0
 21
135.0
  0
LINE
  5
278
100
AcDbEntity
  8
1
  6
CONTINUOUS
 62
           7
100
AcDbLine
 10
644.999999999998
 20
98.0
 11
655.837508219501
 21
107.093749856413
  0
LINE
  5
277
100
AcDbEntity
  8
1
  6
CONTINUOUS
 62
           7
100
AcDbLine
 10
554.999999999998
 20
98.0
 11
644.999999999998
 21
98.0
  0
LINE
  5
276
100
AcDbEntity
  8
1
  6
CONTINUOUS
 62
           7
100
AcDbLine
 10
554.999999999998
 20
98.0
 11
544.162491780492
 21
107.093749856413
  0
LINE
  5
275
100
AcDbEntity
  8
1
  6
DOT_CENTER
 62
           3
100
AcDbLine
 10
600.0
 20
143.0
 11
600.0
 21
73.0
  0
LINE
  5
274
100
AcDbEntity
  8
1
  6
CONTINUOUS
 62
           7
100
AcDbLine
 10
4.972375690606
 20
100.0
 11
4.972375690606
 21
130.0
  0
LINE
  5
273
100
AcDbEntity
  8
1
  6
CONTINUOUS
 62
           7
100
AcDbLine
 10
4.972375690606
 20
130.0
 11
49.89529167302
 21
130.0
  0
LINE
  5
272
100
AcDbEntity
  8
1
  6
CONTINUOUS
 62
           7
100
AcDbLine
 10
49.89529167302
 20
130.0
 11
544.162491780492
 21
107.093749856413
  0
LINE
  5
271
100
AcDbEntity
  8
1
  6
CONTINUOUS
 62
           7
100
AcDbLine
 10
50.023756906078
 20
135.0
 11
546.094069779643
 21
112.0
  0
LINE
  5
270
100
AcDbEntity
  8
1
  6
CONTINUOUS
 62
           7
100
AcDbLine
 10
562.778618779644
 20
98.0
 11
546.094069779643
 21
112.0
  0
LINE
  5
26F
100
AcDbEntity
  8
1
  6
CONTINUOUS
 62
           7
100
AcDbLine
 10
653.905930220357
 20
112.0
 11
637.221381220356
 21
98.0
  0
LINE
  5
26E
100
AcDbEntity
  8
1
  6
CONTINUOUS
 62
           7
100
AcDbLine
 10
653.905930220357
 20
112.0
 11
1149.976243093922
 21
135.0
  0
LINE
  5
26D
100
AcDbEntity
  8
1
  6
CONTINUOUS
 62
           7
100
AcDbLine
 10
655.837508219501
 20
107.093749856413
 11
1150.10470832698
 21
130.0
  0
LINE
  5
26C
100
AcDbEntity
  8
1
  6
CONTINUOUS
 62
           7
100
AcDbLine
 10
1150.10470832698
 20
130.0
 11
1195.027624309394
 21
130.0
  0
LINE
  5
26B
100
AcDbEntity
  8
1
  6
CONTINUOUS
 62
           7
100
AcDbLine
 10
1195.027624309394
 20
130.0
 11
1195.027624309394
 21
100.0
  0
INSERT
  5
2F
100
AcDbEntity
  8
0
100
AcDbBlockReference
  2
EINBAUSET
 10
0.0
 20
0.0
  0
ENDBLK
  5
27E
100
AcDbEntity
  8
0
100
AcDbBlockEnd
  0
BLOCK
  5
31
100
AcDbEntity
  8
0
100
AcDbBlockBegin
  2
WANNENF_SSE
 70
           0
 10
0.0
 20
0.0
 30
0.0
  3
WANNENF_SSE
  1

  0
LINE
  5
294
100
AcDbEntity
  8
1
  6
CONTINUOUS
 62
           2
100
AcDbLine
 10
101.756363
 20
775.0
 11
131.756363
 21
775.0
  0
LINE
  5
293
100
AcDbEntity
  8
1
  6
CONTINUOUS
 62
           2
100
AcDbLine
 10
106.756363
 20
805.0
 11
126.756363
 21
805.0
  0
LINE
  5
292
100
AcDbEntity
  8
1
  6
CONTINUOUS
 62
           2
100
AcDbLine
 10
111.756363
 20
835.0
 11
121.756363
 21
835.0
  0
LINE
  5
291
100
AcDbEntity
  8
1
  6
CONTINUOUS
 62
           2
100
AcDbLine
 10
101.756363
 20
750.0
 11
101.756363
 21
775.0
  0
LINE
  5
290
100
AcDbEntity
  8
1
  6
CONTINUOUS
 62
           2
100
AcDbLine
 10
131.756363
 20
750.0
 11
131.756363
 21
775.0
  0
LINE
  5
28F
100
AcDbEntity
  8
1
  6
CONTINUOUS
 62
           2
100
AcDbLine
 10
126.756363
 20
775.0
 11
126.756363
 21
805.0
  0
LINE
  5
28E
100
AcDbEntity
  8
1
  6
CONTINUOUS
 62
           2
100
AcDbLine
 10
106.756363
 20
775.0
 11
106.756363
 21
805.0
  0
LINE
  5
28D
100
AcDbEntity
  8
1
  6
CONTINUOUS
 62
           2
100
AcDbLine
 10
106.756363
 20
805.0
 11
111.756363
 21
835.0
  0
LINE
  5
28C
100
AcDbEntity
  8
1
  6
CONTINUOUS
 62
           2
100
AcDbLine
 10
126.756363
 20
805.0
 11
121.756363
 21
835.0
  0
LINE
  5
28B
100
AcDbEntity
  8
1
  6
CONTINUOUS
 62
           2
100
AcDbLine
 10
111.756363
 20
835.0
 11
111.756363
 21
911.385526580394
  0
LINE
  5
28A
100
AcDbEntity
  8
1
  6
CONTINUOUS
 62
           2
100
AcDbLine
 10
121.756363
 20
835.0
 11
121.756363
 21
910.801237730869
  0
LINE
  5
289
100
AcDbEntity
  8
1
  6
CONTINUOUS
 62
           2
100
AcDbLine
 10
1068.243637
 20
775.0
 11
1098.243637
 21
775.0
  0
LINE
  5
288
100
AcDbEntity
  8
1
  6
CONTINUOUS
 62
           2
100
AcDbLine
 10
1073.243637
 20
805.0
 11
1093.243637
 21
805.0
  0
LINE
  5
287
100
AcDbEntity
  8
1
  6
CONTINUOUS
 62
           2
100
AcDbLine
 10
1078.243637
 20
835.0
 11
1088.243637
 21
835.0
  0
LINE
  5
286
100
AcDbEntity
  8
1
  6
CONTINUOUS
 62
           2
100
AcDbLine
 10
1098.243637
 20
775.0
 11
1098.243637
 21
750.0
  0
LINE
  5
285
100
AcDbEntity
  8
1
  6
CONTINUOUS
 62
           2
100
AcDbLine
 10
1068.243637
 20
775.0
 11
1068.243637
 21
750.0
  0
LINE
  5
284
100
AcDbEntity
  8
1
  6
CONTINUOUS
 62
           2
100
AcDbLine
 10
1073.243637
 20
805.0
 11
1073.243637
 21
775.0
  0
LINE
  5
283
100
AcDbEntity
  8
1
  6
CONTINUOUS
 62
           2
100
AcDbLine
 10
1093.243637
 20
805.0
 11
1093.243637
 21
775.0
  0
LINE
  5
282
100
AcDbEntity
  8
1
  6
CONTINUOUS
 62
           2
100
AcDbLine
 10
1088.243637
 20
835.0
 11
1093.243637
 21
805.0
  0
LINE
  5
281
100
AcDbEntity
  8
1
  6
CONTINUOUS
 62
           2
100
AcDbLine
 10
1078.243637
 20
835.0
 11
1073.243637
 21
805.0
  0
LINE
  5
280
100
AcDbEntity
  8
1
  6
CONTINUOUS
 62
           2
100
AcDbLine
 10
1088.243637
 20
911.385526580394
 11
1088.243637
 21
835.0
  0
LINE
  5
27F
100
AcDbEntity
  8
1
  6
CONTINUOUS
 62
           2
100
AcDbLine
 10
1078.243637
 20
910.801237730869
 11
1078.243637
 21
835.0
  0
ENDBLK
  5
295
100
AcDbEntity
  8
0
100
AcDbBlockEnd
  0
BLOCK
  5
33
100
AcDbEntity
  8
0
100
AcDbBlockBegin
  2
WANNE_FREE_BASE_1200X900_6
 70
           0
 10
0.0
 20
0.0
 30
0.0
  3
WANNE_FREE_BASE_1200X900_6
  1

  0
LINE
  5
2A8
100
AcDbEntity
  8
1
  6
CONTINUOUS
 62
           7
100
AcDbLine
 10
1195.027624309394
 20
915.0
 11
1195.027624309394
 21
885.0
  0
LINE
  5
2A7
100
AcDbEntity
  8
1
  6
CONTINUOUS
 62
           7
100
AcDbLine
 10
1150.10470832698
 20
915.0
 11
1195.027624309394
 21
915.0
  0
LINE
  5
2A6
100
AcDbEntity
  8
1
  6
CONTINUOUS
 62
           7
100
AcDbLine
 10
655.837508219501
 20
892.093749856413
 11
1150.10470832698
 21
915.0
  0
LINE
  5
2A5
100
AcDbEntity
  8
1
  6
CONTINUOUS
 62
           7
100
AcDbLine
 10
653.905930220357
 20
897.0
 11
1149.976243093922
 21
920.0
  0
LINE
  5
2A4
100
AcDbEntity
  8
1
  6
CONTINUOUS
 62
           7
100
AcDbLine
 10
653.905930220357
 20
897.0
 11
637.221381220356
 21
883.0
  0
LINE
  5
2A3
100
AcDbEntity
  8
1
  6
CONTINUOUS
 62
           7
100
AcDbLine
 10
562.778618779644
 20
883.0
 11
546.094069779643
 21
897.0
  0
LINE
  5
2A2
100
AcDbEntity
  8
1
  6
CONTINUOUS
 62
           7
100
AcDbLine
 10
50.023756906078
 20
920.0
 11
546.094069779643
 21
897.0
  0
LINE
  5
2A1
100
AcDbEntity
  8
1
  6
CONTINUOUS
 62
           7
100
AcDbLine
 10
49.89529167302
 20
915.0
 11
544.162491780492
 21
892.093749856413
  0
LINE
  5
2A0
100
AcDbEntity
  8
1
  6
CONTINUOUS
 62
           7
100
AcDbLine
 10
4.972375690606
 20
915.0
 11
49.89529167302
 21
915.0
  0
LINE
  5
29F
100
AcDbEntity
  8
1
  6
CONTINUOUS
 62
           7
100
AcDbLine
 10
4.972375690606
 20
885.0
 11
4.972375690606
 21
915.0
  0
LINE
  5
29E
100
AcDbEntity
  8
1
  6
DOT_CENTER
 62
           3
100
AcDbLine
 10
600.0
 20
928.0
 11
600.0
 21
858.0
  0
LINE
  5
29D
100
AcDbEntity
  8
1
  6
CONTINUOUS
 62
           7
100
AcDbLine
 10
554.999999999998
 20
883.0
 11
544.162491780492
 21
892.093749856413
  0
LINE
  5
29C
100
AcDbEntity
  8
1
  6
CONTINUOUS
 62
           7
100
AcDbLine
 10
554.999999999998
 20
883.0
 11
644.999999999998
 21
883.0
  0
LINE
  5
29B
100
AcDbEntity
  8
1
  6
CONTINUOUS
 62
           7
100
AcDbLine
 10
644.999999999998
 20
883.0
 11
655.837508219501
 21
892.093749856413
  0
LINE
  5
29A
100
AcDbEntity
  8
1
  6
CONTINUOUS
 62
           7
100
AcDbLine
 10
1200.0
 20
885.0
 11
1200.0
 21
920.0
  0
LINE
  5
299
100
AcDbEntity
  8
1
  6
CONTINUOUS
 62
           7
100
AcDbLine
 10
0.0
 20
885.0
 11
0.0
 21
920.0
  0
LINE
  5
298
100
AcDbEntity
  8
1
  6
CONTINUOUS
 62
           7
100
AcDbLine
 10
0.0
 20
920.0
 11
1200.0
 21
920.0
  0
LINE
  5
297
100
AcDbEntity
  8
1
  6
CONTINUOUS
 62
           7
100
AcDbLine
 10
647.383506999998
 20
885.0
 11
1200.0
 21
885.0
  0
LINE
  5
296
100
AcDbEntity
  8
1
  6
CONTINUOUS
 62
           7
100
AcDbLine
 10
0.0
 20
885.0
 11
552.616492999998
 21
885.0
  0
INSERT
  5
34
100
AcDbEntity
  8
0
100
AcDbBlockReference
  2
WANNENF_SSE
 10
0.0
 20
0.0
  0
ENDBLK
  5
2A9
100
AcDbEntity
  8
0
100
AcDbBlockEnd
  0
BLOCK
  5
36
100
AcDbEntity
  8
0
100
AcDbBlockBegin
  2
WANNE_FREE_BASE_1200X900_7
 70
           0
 10
0.0
 20
0.0
 30
0.0
  3
WANNE_FREE_BASE_1200X900_7
  1

  0
LINE
  5
2BC
100
AcDbEntity
  8
1
  6
CONTINUOUS
 62
           7
100
AcDbLine
 10
0.0
 20
1590.0
 11
552.616492999998
 21
1590.0
  0
LINE
  5
2BB
100
AcDbEntity
  8
1
  6
CONTINUOUS
 62
           7
100
AcDbLine
 10
647.383506999998
 20
1590.0
 11
1200.0
 21
1590.0
  0
LINE
  5
2BA
100
AcDbEntity
  8
1
  6
CONTINUOUS
 62
           7
100
AcDbLine
 10
0.0
 20
1625.0
 11
1200.0
 21
1625.0
  0
LINE
  5
2B9
100
AcDbEntity
  8
1
  6
CONTINUOUS
 62
           7
100
AcDbLine
 10
0.0
 20
1590.0
 11
0.0
 21
1625.0
  0
LINE
  5
2B8
100
AcDbEntity
  8
1
  6
CONTINUOUS
 62
           7
100
AcDbLine
 10
1200.0
 20
1590.0
 11
1200.0
 21
1625.0
  0
LINE
  5
2B7
100
AcDbEntity
  8
1
  6
CONTINUOUS
 62
           7
100
AcDbLine
 10
644.999999999998
 20
1588.0
 11
655.837508219501
 21
1597.093749856413
  0
LINE
  5
2B6
100
AcDbEntity
  8
1
  6
CONTINUOUS
 62
           7
100
AcDbLine
 10
554.999999999998
 20
1588.0
 11
644.999999999998
 21
1588.0
  0
LINE
  5
2B5
100
AcDbEntity
  8
1
  6
CONTINUOUS
 62
           7
100
AcDbLine
 10
554.999999999998
 20
1588.0
 11
544.162491780492
 21
1597.093749856413
  0
LINE
  5
2B4
100
AcDbEntity
  8
1
  6
DOT_CENTER
 62
           3
100
AcDbLine
 10
600.0
 20
1633.0
 11
600.0
 21
1563.0
  0
LINE
  5
2B3
100
AcDbEntity
  8
1
  6
CONTINUOUS
 62
           7
100
AcDbLine
 10
4.972375690606
 20
1590.0
 11
4.972375690606
 21
1620.0
  0
LINE
  5
2B2
100
AcDbEntity
  8
1
  6
CONTINUOUS
 62
           7
100
AcDbLine
 10
4.972375690606
 20
1620.0
 11
49.89529167302
 21
1620.0
  0
LINE
  5
2B1
100
AcDbEntity
  8
1
  6
CONTINUOUS
 62
           7
100
AcDbLine
 10
49.89529167302
 20
1620.0
 11
544.162491780492
 21
1597.093749856413
  0
LINE
  5
2B0
100
AcDbEntity
  8
1
  6
CONTINUOUS
 62
           7
100
AcDbLine
 10
50.023756906078
 20
1625.0
 11
546.094069779643
 21
1602.000000000001
  0
LINE
  5
2AF
100
AcDbEntity
  8
1
  6
CONTINUOUS
 62
           7
100
AcDbLine
 10
562.778618779644
 20
1588.0
 11
546.094069779643
 21
1602.000000000001
  0
LINE
  5
2AE
100
AcDbEntity
  8
1
  6
CONTINUOUS
 62
           7
100
AcDbLine
 10
653.905930220357
 20
1602.0
 11
637.221381220356
 21
1588.0
  0
LINE
  5
2AD
100
AcDbEntity
  8
1
  6
CONTINUOUS
 62
           7
100
AcDbLine
 10
653.905930220357
 20
1602.0
 11
1149.976243093922
 21
1625.0
  0
LINE
  5
2AC
100
AcDbEntity
  8
1
  6
CONTINUOUS
 62
           7
100
AcDbLine
 10
655.837508219501
 20
1597.093749856413
 11
1150.10470832698
 21
1620.000000000001
  0
LINE
  5
2AB
100
AcDbEntity
  8
1
  6
CONTINUOUS
 62
           7
100
AcDbLine
 10
1150.10470832698
 20
1620.000000000001
 11
1195.027624309394
 21
1620.0
  0
LINE
  5
2AA
100
AcDbEntity
  8
1
  6
CONTINUOUS
 62
           7
100
AcDbLine
 10
1195.027624309394
 20
1620.0
 11
1195.027624309394
 21
1590.0
  0
ENDBLK
  5
2BD
100
AcDbEntity
  8
0
100
AcDbBlockEnd
  0
ENDSEC
  0
SECTION
  2
ENTITIES
  0
MTEXT
  5
2C8
100
AcDbEntity
  8
1
 62
           3
100
AcDbMText
 10
575.0
 20
1553.0
 30
0.0
 40
35.0
 41
0.0
 71
           3
 72
           1
  1
ø 90
  7
CONVERTER_1
  0
MTEXT
  5
2C7
100
AcDbEntity
  8
1
 62
           3
100
AcDbMText
 10
575.0
 20
848.0
 30
0.0
 40
35.0
 41
0.0
 71
           3
 72
           1
  1
ø 90
  7
CONVERTER_1
  0
MTEXT
  5
2C6
100
AcDbEntity
  8
1
 62
           3
100
AcDbMText
 10
645.0
 20
63.0
 30
0.0
 40
35.0
 41
0.0
 71
           3
 72
           1
  1
ø 90
  7
CONVERTER_1
  0
MTEXT
  5
2C5
100
AcDbEntity
  8
1
 62
           2
100
AcDbMText
 10
-300.0
 20
1900.0
 30
0.0
 40
50.0
 41
0.0
 71
           7
 72
           1
  1
Ohne Wannengestell, ohne Einbauset\P(Mindesteinbauhöhe)
  7
CONVERTER_1
  0
TEXT
  5
2C4
100
AcDbEntity
  8
1
 62
           2
100
AcDbText
 10
-300.0
 20
1150.0
 40
50.0
  1
Mit Wannengestell, mit/ohne Schürze
 41
0.71262
  7
CONVERTER_1
100
AcDbText
  0
TEXT
  5
2C3
100
AcDbEntity
  8
1
 62
           2
100
AcDbText
 10
-300.0
 20
395.0
 40
50.0
  1
Mit Einbauset based on Poresta by Illbruck
 41
0.71262
  7
CONVERTER_1
100
AcDbText
  0
TEXT
  5
2C2
100
AcDbEntity
  8
1
 62
           2
100
AcDbText
 10
255.0
 20
160.0
 40
35.0
  1
Free Base 1200 x 900
 41
0.71262
  7
CONVERTER_1
100
AcDbText
  0
TEXT
  5
2C1
100
AcDbEntity
  8
1
 62
           2
100
AcDbText
 10
255.0
 20
945.0
 40
35.0
  1
Free Base 1200 x 900
 41
0.71262
  7
CONVERTER_1
100
AcDbText
  0
TEXT
  5
2C0
100
AcDbEntity
  8
1
 62
           2
100
AcDbText
 10
255.0
 20
1650.0
 40
35.0
  1
Free Base 1200 x 900
 41
0.71262
  7
CONVERTER_1
100
AcDbText
  0
INSERT
  5
39
100
AcDbEntity
  8
0
100
AcDbBlockReference
  2
DLX__1
 10
0.0
 20
0.0
  0
INSERT
  5
3A
100
AcDbEntity
  8
0
100
AcDbBlockReference
  2
DLX__2
 10
0.0
 20
0.0
  0
INSERT
  5
3B
100
AcDbEntity
  8
0
100
AcDbBlockReference
  2
DLX__3
 10
0.0
 20
0.0
  0
INSERT
  5
3C
100
AcDbEntity
  8
0
100
AcDbBlockReference
  2
WANNE_FREE_BASE_1200X900_4
 10
0.0
 20
0.0
  0
INSERT
  5
3D
100
AcDbEntity
  8
0
100
AcDbBlockReference
  2
WANNE_FREE_BASE_1200X900_6
 10
0.0
 20
0.0
  0
INSERT
  5
3E
100
AcDbEntity
  8
0
100
AcDbBlockReference
  2
WANNE_FREE_BASE_1200X900_7
 10
0.0
 20
0.0
  0
ENDSEC
  0
SECTION
  2
OBJECTS
  0
DICTIONARY
  5
19
100
AcDbDictionary
  3
ACAD_GROUP
350
1A
  3
ACAD_MLINESTYLE
350
1B
  0
DICTIONARY
  5
1A
102
{ACAD_REACTORS
330
19
102
}
100
AcDbDictionary
  0
DICTIONARY
  5
1B
102
{ACAD_REACTORS
330
19
102
}
100
AcDbDictionary
  3
STANDARD
350
1C
  0
MLINESTYLE
  5
1C
102
{ACAD_REACTORS
330
1B
102
}
100
AcDbMlineStyle
  2
STANDARD
 70
           0
  3

 62
           0
 51
90.0
 52
90.0
 71
           2
 49
0.5
 62
         256
  6
BYLAYER
 49
-0.5
 62
         256
  6
BYLAYER
  0
ENDSEC
  0
EOF
