  0
SECTION
  2
HEADER
  9
$ACADVER
  1
AC1009
  9
$INSBASE
 10
0
 20
0
  9
$EXTMIN
 10
0
 20
0
  9
$EXTMAX
 10
900
 20
900
  9
$LIMMIN
 10
0
 20
0
  9
$LIMMAX
 10
900
 20
900
  9
$VIEWCTR
 10
10
 20
10
  9
$VIEWSIZE
 40
10
  9
$SNAPMODE
 70
0
  9
$SNAPUNIT
 10
1
 20
1
  9
$SNAPBASE
 10
0
 20
0
  9
$SNAPANG
 50
0
  9
$SNAPSTYLE
 70
0
  9
$SNAPISOPAIR
 70
0
  9
$GRIDMODE
 70
0
  9
$GRIDUNIT
 10
0
 20
0
  9
$ORTHOMODE
 70
0
  9
$REGENMODE
 70
1
  9
$FILLMODE
 70
1
  9
$QTEXTMODE
 70
0
  9
$DRAGMODE
 70
2
  9
$LTSCALE
 40
1
  9
$OSMODE
 70
0
  9
$ATTMODE
 70
1
  9
$TEXTSIZE
 40
3.5
  9
$TRACEWID
 40
0.5
  9
$TEXTSTYLE
  7
STANDARD
  9
$CLAYER
  8
0
  9
$CELTYPE
  6
BYLAYER
  9
$CECOLOR
 62
256
  9
$DIMSCALE
 40
1
  9
$DIMASZ
 40
0.18
  9
$DIMEXO
 40
0.0625
  9
$DIMDLI
 40
0.38
  9
$DIMRND
 40
0
  9
$DIMDLE
 40
0
  9
$DIMEXE
 40
0.18
  9
$DIMTP
 40
0
  9
$DIMTM
 40
0
  9
$DIMTXT
 40
0.18
  9
$DIMCEN
 40
0.09
  9
$DIMTSZ
 40
0
  9
$DIMTOL
 70
0
  9
$DIMLIM
 70
0
  9
$DIMTIH
 70
1
  9
$DIMTOH
 70
1
  9
$DIMSE1
 70
0
  9
$DIMSE2
 70
0
  9
$DIMTAD
 70
0
  9
$DIMZIN
 70
0
  9
$DIMBLK
  1

  9
$DIMASO
 70
1
  9
$DIMSHO
 70
1
  9
$DIMPOST
  1

  9
$DIMAPOST
  1

  9
$DIMALT
 70
0
  9
$DIMALTD
 70
2
  9
$DIMALTF
 40
25.4
  9
$DIMLFAC
 40
1
  9
$DIMTOFL
 70
0
  9
$DIMTVP
 40
0
  9
$DIMTIX
 70
0
  9
$DIMSOXD
 70
0
  9
$DIMSAH
 70
0
  9
$DIMBLK1
  1

  9
$DIMBLK2
  1

  9
$DIMSTYLE
  2
*UNNAMED
  9
$DIMCLRD
 70
0
  9
$DIMCLRE
 70
0
  9
$DIMCLRT
 70
0
  9
$DIMTFAC
 40
1
  9
$DIMGAP
 40
0.09
  9
$LUNITS
 70
2
  9
$LUPREC
 70
4
  9
$AXISMODE
 70
0
  9
$AXISUNIT
 10
0
 20
0
  9
$SKETCHINC
 40
0.1
  9
$FILLETRAD
 40
2
  9
$AUNITS
 70
0
  9
$AUPREC
 70
0
  9
$MENU
  1
ACAD
  9
$ELEVATION
 40
0
  9
$THICKNESS
 40
0
  9
$VIEWDIR
 10
0
 20
0
 30
1
  9
$LIMCHECK
 70
0
  9
$BLIPMODE
 70
1
  9
$CHAMFERA
 40
0
  9
$CHAMFERB
 40
0
  9
$FASTZOOM
 70
1
  9
$SKPOLY
 70
0
  9
$ANGBASE
 50
0
  9
$ANGDIR
 70
0
  9
$PDMODE
 70
0
  9
$PDSIZE
 40
0
  9
$PLINEWID
 40
0
  9
$COORDS
 70
2
  0
ENDSEC
  0
SECTION
  2
TABLES
  0
TABLE
  2
DIMSTYLE
 70
0
  0
ENDTAB
  0
TABLE
  2
LTYPE
 70
9
  0
LTYPE
  2
CONTINUOUS
 70
64
  3
Solid line
 72
65
 73
0
 40
0
  0
LTYPE
  2
BORDER
 70
64
  3
__ __ . __ __ .
 72
65
 73
6
 40
41.44736842105264
 49
11.8421052631579
 49
-5.921052631578948
 49
11.8421052631579
 49
-5.921052631578948
 49
0
 49
-5.921052631578948
  0
LTYPE
  2
CENTER
 70
64
  3
____ _ ____ _
 72
65
 73
4
 40
47.36842105263158
 49
29.60526315789474
 49
-5.921052631578948
 49
5.921052631578948
 49
-5.921052631578948
  0
LTYPE
  2
DASHDOT
 70
64
  3
__ . __ . __ .
 72
65
 73
4
 40
23.68421052631579
 49
11.8421052631579
 49
-5.921052631578948
 49
0
 49
-5.921052631578948
  0
LTYPE
  2
DASHED
 70
64
  3
__ __ __ __ __
 72
65
 73
2
 40
17.76315789473684
 49
11.8421052631579
 49
-5.921052631578948
  0
LTYPE
  2
DIVIDE
 70
64
  3
__ . . __ . . 
 72
65
 73
6
 40
29.60526315789474
 49
11.8421052631579
 49
-5.921052631578948
 49
0
 49
-5.921052631578948
 49
0
 49
-5.921052631578948
  0
LTYPE
  2
DOT
 70
64
  3
..............
 72
65
 73
4
 40
11.8421052631579
 49
0
 49
-5.921052631578948
 49
0
 49
-5.921052631578948
  0
LTYPE
  2
HIDDEN
 70
64
  3
_ _ _ _ _ _ _
 72
65
 73
2
 40
8.881578947368421
 49
5.921052631578948
 49
-2.960526315789474
  0
LTYPE
  2
PHANTOM
 70
64
  3
_____ _ _ _____ _ _ 
 72
65
 73
6
 40
59.21052631578948
 49
29.60526315789474
 49
-5.921052631578948
 49
5.921052631578948
 49
-5.921052631578948
 49
5.921052631578948
 49
-5.921052631578948
  0
ENDTAB
  0
TABLE
  2
LAYER
 70
5
  0
LAYER
  2
MITTELLINIEN
 70
0
 62
7
  6
CONTINUOUS
  0
LAYER
  2
1
 70
0
 62
7
  6
CONTINUOUS
  0
LAYER
  2
GEOMETRIE
 70
0
 62
7
  6
CONTINUOUS
  0
LAYER
  2
0
 70
0
 62
7
  6
CONTINUOUS
  0
ENDTAB
  0
TABLE
  2
STYLE
 70
4
  0
STYLE
  2
STANDARD
 70
0
 40
0
 41
1
 50
0
 71
0
 42
3.5
  3
txt
  4

  0
STYLE
  2
SIMPLEX
 70
0
 40
0
 41
1
 50
0
 71
0
 42
3.5
  3
simplex
  4

  0
STYLE
  2
COMPLEX
 70
0
 40
0
 41
1
 50
0
 71
0
 42
3.5
  3
complex
  4

  0
STYLE
  2
ITALIC
 70
0
 40
0
 41
1
 50
0
 71
0
 42
3.5
  3
italic
  4

  0
ENDTAB
  0
TABLE
  2
VIEW
 70
0
  0
ENDTAB
  0
ENDSEC
  0
SECTION
  2
BLOCKS
  0
BLOCK
  8
0
  2
DLX
 70
0
 10
100
 20
350
 30
0
  0
LINE
  8
1
 62
3
 10
271.2066361356991
 20
403.505992531278
 30
0
 11
271.2066361356991
 21
401.050334541276
 31
0
  0
LINE
  8
1
 62
3
 10
273.062609127785
 20
403.505992531278
 30
0
 11
271.2066361356991
 21
403.505992531278
 31
0
  0
LINE
  8
1
 62
3
 10
271.2066361356991
 20
401.050334541276
 30
0
 11
273.1941193636411
 21
401.050334541276
 31
0
  0
LINE
  8
1
 62
3
 10
271.2066361356991
 20
397.451055788282
 30
0
 11
270.3341884365839
 21
397.451055788282
 31
0
  0
LINE
  8
1
 62
3
 10
272.9316978373171
 20
400.2001112138419
 30
0
 11
271.2066361356991
 21
400.2001112138419
 31
0
  0
LINE
  8
1
 62
3
 10
273.944912577237
 20
397.451055788282
 30
0
 11
273.944912577237
 21
399.0729110559
 31
0
  0
LINE
  8
1
 62
3
 10
274.906099392742
 20
397.451055788282
 30
0
 11
273.944912577237
 21
397.451055788282
 31
0
  0
LINE
  8
1
 62
3
 10
274.906099392742
 20
399.3306895546259
 30
0
 11
274.906099392742
 21
397.451055788282
 31
0
  0
LINE
  8
1
 62
3
 10
272.776108295824
 20
404.3095239634561
 30
0
 11
273.0724648781759
 21
404.3095239634561
 31
0
  0
LINE
  8
1
 62
3
 10
270.3341884365839
 20
404.3095239634561
 30
0
 11
272.776108295824
 21
404.3095239634561
 31
0
  0
LINE
  8
1
 62
3
 10
270.3341884365839
 20
397.451055788282
 30
0
 11
270.3341884365839
 21
404.3095239634561
 31
0
  0
LINE
  8
1
 62
3
 10
271.2066361356991
 20
400.2001112138419
 30
0
 11
271.2066361356991
 21
397.451055788282
 31
0
  0
LINE
  8
1
 62
3
 10
226.68540084903
 20
406.38450847832
 30
0
 11
224.591323771416
 21
406.38450847832
 31
0
  0
LINE
  8
1
 62
3
 10
223.9754657010669
 20
395.3239024177931
 30
0
 11
226.68540084903
 21
406.38450847832
 31
0
  0
LINE
  8
1
 62
3
 10
234.445851089087
 20
395.3239024177931
 30
0
 11
223.9754657010669
 21
395.3239024177931
 31
0
  0
LINE
  8
1
 62
3
 10
233.9038640594258
 20
393.1117812056621
 30
0
 11
234.445851089087
 21
395.3239024177931
 31
0
  0
LINE
  8
1
 62
3
 10
221.339401593847
 20
393.1117812056621
 30
0
 11
233.9038640594258
 21
393.1117812056621
 31
0
  0
LINE
  8
1
 62
3
 10
224.591323771416
 20
406.38450847832
 30
0
 11
221.339401593847
 21
393.1117812056621
 31
0
  0
LINE
  8
1
 62
3
 10
211.144653716558
 20
397.5360236298441
 30
0
 11
214.9003688559238
 21
404.172387266269
 31
0
  0
LINE
  8
1
 62
3
 10
215.957172001214
 20
404.172387266269
 30
0
 11
214.9003688559238
 21
404.172387266269
 31
0
  0
LINE
  8
1
 62
3
 10
216.4609649630688
 20
397.5360236298441
 30
0
 11
215.957172001214
 21
404.172387266269
 31
0
  0
LINE
  8
1
 62
3
 10
211.144653716558
 20
397.5360236298441
 30
0
 11
216.4609649630688
 21
397.5360236298441
 31
0
  0
LINE
  8
1
 62
3
 10
208.6408436236638
 20
393.1117812056621
 30
0
 11
206.2620466350929
 21
393.1117812056621
 31
0
  0
LINE
  8
1
 62
3
 10
209.892748670027
 20
395.3239024177931
 30
0
 11
208.6408436236638
 21
393.1117812056621
 31
0
  0
LINE
  8
1
 62
3
 10
216.6288959503909
 20
395.3239024177931
 30
0
 11
209.892748670027
 21
395.3239024177931
 31
0
  0
LINE
  8
1
 62
3
 10
216.7968269376579
 20
393.1117812056621
 30
0
 11
216.6288959503909
 21
395.3239024177931
 31
0
  0
LINE
  8
1
 62
3
 10
218.826509100727
 20
393.1117812056621
 30
0
 11
216.7968269376579
 21
393.1117812056621
 31
0
  0
LINE
  8
1
 62
3
 10
217.818923176965
 20
406.38450847832
 30
0
 11
218.826509100727
 21
393.1117812056621
 31
0
  0
LINE
  8
1
 62
3
 10
213.7734769139901
 20
406.38450847832
 30
0
 11
217.818923176965
 21
406.38450847832
 31
0
  0
LINE
  8
1
 62
3
 10
206.2620466350929
 20
393.1117812056621
 30
0
 11
213.7734769139901
 21
406.38450847832
 31
0
  0
LINE
  8
1
 62
3
 10
193.2787687540589
 20
393.1117812056621
 30
0
 11
191.1846916764989
 21
393.1117812056621
 31
0
  0
LINE
  8
1
 62
3
 10
196.0847710509879
 20
404.5644855385979
 30
0
 11
193.2787687540589
 21
393.1117812056621
 31
0
  0
LINE
  8
1
 62
3
 10
196.7253193174979
 20
402.9053946295351
 30
0
 11
196.0847710509879
 21
404.5644855385979
 31
0
  0
LINE
  8
1
 62
3
 10
200.5064756532079
 20
393.1117812056621
 30
0
 11
196.7253193174979
 21
402.9053946295351
 31
0
  0
LINE
  8
1
 62
3
 10
203.7491541419769
 20
393.1117812056621
 30
0
 11
200.5064756532079
 21
393.1117812056621
 31
0
  0
LINE
  8
1
 62
3
 10
207.0010763195969
 20
406.38450847832
 30
0
 11
203.7491541419769
 21
393.1117812056621
 31
0
  0
LINE
  8
1
 62
3
 10
204.9069992419829
 20
406.38450847832
 30
0
 11
207.0010763195969
 21
406.38450847832
 31
0
  0
LINE
  8
1
 62
3
 10
202.0615673366299
 20
394.770872114746
 30
0
 11
204.9069992419829
 21
406.38450847832
 31
0
  0
LINE
  8
1
 62
3
 10
197.5777294703549
 20
406.38450847832
 30
0
 11
202.0615673366299
 21
394.770872114746
 31
0
  0
LINE
  8
1
 62
3
 10
194.4366138540139
 20
406.38450847832
 30
0
 11
197.5777294703549
 21
406.38450847832
 31
0
  0
LINE
  8
1
 62
3
 10
191.1846916764989
 20
393.1117812056621
 30
0
 11
194.4366138540139
 21
406.38450847832
 31
0
  0
LINE
  8
1
 62
3
 10
191.9237213608981
 20
406.38450847832
 30
0
 11
189.8296442833339
 21
406.38450847832
 31
0
  0
LINE
  8
1
 62
3
 10
189.8296442833339
 20
406.38450847832
 30
0
 11
186.5777221057689
 21
393.1117812056621
 31
0
  0
LINE
  8
1
 62
3
 10
188.671799183329
 20
393.1117812056621
 30
0
 11
191.9237213608981
 21
406.38450847832
 31
0
  0
LINE
  8
1
 62
3
 10
186.5777221057689
 20
393.1117812056621
 30
0
 11
188.671799183329
 21
393.1117812056621
 31
0
  0
LINE
  8
1
 62
3
 10
184.0845019505219
 20
401.739053932891
 30
0
 11
186.1785790280479
 21
401.739053932891
 31
0
  0
LINE
  8
1
 62
3
 10
183.0547265943719
 20
397.5360236298441
 30
0
 11
182.5127395646049
 21
395.3239024177931
 31
0
  0
LINE
  8
1
 62
3
 10
178.8665724389717
 20
397.5360236298441
 30
0
 11
183.0547265943719
 21
397.5360236298441
 31
0
  0
LINE
  8
1
 62
3
 10
179.4085594686189
 20
399.7481448420331
 30
0
 11
178.8665724389717
 21
397.5360236298441
 31
0
  0
LINE
  8
1
 62
3
 10
185.6907907014249
 20
399.7481448420331
 30
0
 11
184.0648296126528
 21
393.1117812056621
 31
0
  0
LINE
  8
1
 62
3
 10
185.6907907014249
 20
399.7481448420331
 30
0
 11
179.4085594686189
 21
399.7481448420331
 31
0
  0
LINE
  8
1
 62
3
 10
174.1364312542755
 20
395.3239024177931
 30
0
 11
176.3043793726031
 21
404.172387266269
 31
0
  0
LINE
  8
1
 62
3
 10
176.3043793726031
 20
404.172387266269
 30
0
 11
184.6806876828999
 21
404.172387266269
 31
0
  0
LINE
  8
1
 62
3
 10
184.6806876828999
 20
404.172387266269
 30
0
 11
184.0845019505219
 21
401.739053932891
 31
0
  0
LINE
  8
1
 62
3
 10
182.5127395646049
 20
395.3239024177931
 30
0
 11
174.1364312542755
 21
395.3239024177931
 31
0
  0
LINE
  8
1
 62
3
 10
184.0648296126528
 20
393.1117812056621
 30
0
 11
171.5003671470404
 21
393.1117812056621
 31
0
  0
LINE
  8
1
 62
3
 10
187.3167517901749
 20
406.38450847832
 30
0
 11
186.1785790280479
 21
401.739053932891
 31
0
  0
LINE
  8
1
 62
3
 10
174.7522893245841
 20
406.38450847832
 30
0
 11
187.3167517901749
 21
406.38450847832
 31
0
  0
LINE
  8
1
 62
3
 10
171.5003671470404
 20
393.1117812056621
 30
0
 11
174.7522893245841
 21
406.38450847832
 31
0
  0
LINE
  8
1
 62
3
 10
168.9874746540554
 20
393.1117812056621
 30
0
 11
172.2393968314647
 21
406.38450847832
 31
0
  0
LINE
  8
1
 62
3
 10
166.8933975763357
 20
393.1117812056621
 30
0
 11
168.9874746540554
 21
393.1117812056621
 31
0
  0
LINE
  8
1
 62
3
 10
170.1453197539013
 20
406.38450847832
 30
0
 11
166.8933975763357
 21
393.1117812056621
 31
0
  0
LINE
  8
1
 62
3
 10
172.2393968314647
 20
406.38450847832
 30
0
 11
170.1453197539013
 21
406.38450847832
 31
0
  0
LINE
  8
1
 62
3
 10
153.9101196952979
 20
393.1117812056621
 30
0
 11
154.9940937544088
 21
397.5360236298441
 31
0
  0
LINE
  8
1
 62
3
 10
151.8160426176219
 20
393.1117812056621
 30
0
 11
153.9101196952979
 21
393.1117812056621
 31
0
  0
LINE
  8
1
 62
3
 10
165.3282234693179
 20
396.979895810782
 30
0
 11
164.3805050832052
 21
393.1117812056621
 31
0
  0
LINE
  8
1
 62
3
 10
156.6200548431843
 20
404.172387266269
 30
0
 11
155.5360807840007
 21
399.7481448420331
 31
0
  0
LINE
  8
1
 62
3
 10
164.996363153703
 20
404.172387266269
 30
0
 11
156.6200548431843
 21
404.172387266269
 31
0
  0
LINE
  8
1
 62
3
 10
163.9123890943811
 20
399.7481448420331
 30
0
 11
164.996363153703
 21
404.172387266269
 31
0
  0
LINE
  8
1
 62
3
 10
155.5360807840007
 20
399.7481448420331
 30
0
 11
163.9123890943811
 21
399.7481448420331
 31
0
  0
LINE
  8
1
 62
3
 10
163.3704020649384
 20
397.5360236298441
 30
0
 11
154.9940937544088
 21
397.5360236298441
 31
0
  0
LINE
  8
1
 62
3
 10
162.2864280055655
 20
393.1117812056621
 30
0
 11
163.3704020649384
 21
397.5360236298441
 31
0
  0
LINE
  8
1
 62
3
 10
164.3805050832052
 20
393.1117812056621
 30
0
 11
162.2864280055655
 21
393.1117812056621
 31
0
  0
LINE
  8
1
 62
3
 10
167.632427260738
 20
406.38450847832
 30
0
 11
165.7649031508845
 21
398.7622048583319
 31
0
  0
LINE
  8
1
 62
3
 10
155.0679647951583
 20
406.38450847832
 30
0
 11
167.632427260738
 21
406.38450847832
 31
0
  0
LINE
  8
1
 62
3
 10
155.0679647951583
 20
406.38450847832
 30
0
 11
151.8160426176219
 21
393.1117812056621
 31
0
  0
LINE
  8
1
 62
3
 10
139.3747517661324
 20
395.3239024177931
 30
0
 11
141.5426998844741
 21
404.172387266269
 31
0
  0
LINE
  8
1
 62
3
 10
141.5426998844741
 20
404.172387266269
 30
0
 11
149.9190081949637
 21
404.172387266269
 31
0
  0
LINE
  8
1
 62
3
 10
149.9190081949637
 20
404.172387266269
 30
0
 11
147.7510600764872
 21
395.3239024177931
 31
0
  0
LINE
  8
1
 62
3
 10
147.7510600764872
 20
395.3239024177931
 30
0
 11
139.3747517661324
 21
395.3239024177931
 31
0
  0
LINE
  8
1
 62
3
 10
149.3031501244914
 20
393.1117812056621
 30
0
 11
136.7386876589662
 21
393.1117812056621
 31
0
  0
LINE
  8
1
 62
3
 10
152.5550723021661
 20
406.38450847832
 30
0
 11
149.3031501244914
 21
393.1117812056621
 31
0
  0
LINE
  8
1
 62
3
 10
139.9906098364481
 20
406.38450847832
 30
0
 11
152.5550723021661
 21
406.38450847832
 31
0
  0
LINE
  8
1
 62
3
 10
136.7386876589662
 20
393.1117812056621
 30
0
 11
139.9906098364481
 21
406.38450847832
 31
0
  0
LINE
  8
1
 62
3
 10
280.3295031522068
 20
350
 30
0
 11
227.738701733397
 21
350
 31
0
  0
LINE
  8
1
 62
3
 10
277.928830785688
 20
356.1939393939099
 30
0
 11
235.1196812335149
 21
356.1939393939099
 31
0
  0
LINE
  8
1
 62
3
 10
277.928830785688
 20
356.1939393939099
 30
0
 11
280.3295031522068
 21
350
 31
0
  0
LINE
  8
1
 62
3
 10
270.686830708906
 20
374.878917066824
 30
0
 11
267.906977584949
 21
382.051175145079
 31
0
  0
LINE
  8
1
 62
3
 10
276.284056889192
 20
382.051175145079
 30
0
 11
270.686830708906
 21
374.878917066824
 31
0
  0
LINE
  8
1
 62
3
 10
280.32950315225
 20
382.051175145079
 30
0
 11
276.284056889192
 21
382.051175145079
 31
0
  0
LINE
  8
1
 62
3
 10
272.029273107168
 20
371.415301218603
 30
0
 11
280.32950315225
 21
382.051175145079
 31
0
  0
LINE
  8
1
 62
3
 10
276.8999712001719
 20
358.848484848477
 30
0
 11
272.029273107168
 21
371.415301218603
 31
0
  0
LINE
  8
1
 62
3
 10
272.854524937124
 20
358.848484848477
 30
0
 11
276.8999712001719
 21
358.848484848477
 31
0
  0
LINE
  8
1
 62
3
 10
269.3262692424398
 20
367.951685370502
 30
0
 11
272.854524937124
 21
358.848484848477
 31
0
  0
LINE
  8
1
 62
3
 10
262.222136662338
 20
358.848484848477
 30
0
 11
269.3262692424398
 21
367.951685370502
 31
0
  0
LINE
  8
1
 62
3
 10
258.1766903993408
 20
358.848484848477
 30
0
 11
262.222136662338
 21
358.848484848477
 31
0
  0
LINE
  8
1
 62
3
 10
267.9838268441308
 20
371.4153012186609
 30
0
 11
258.1766903993408
 21
358.848484848477
 31
0
  0
LINE
  8
1
 62
3
 10
263.8615313219341
 20
382.051175145079
 30
0
 11
267.9838268441308
 21
371.4153012186609
 31
0
  0
LINE
  8
1
 62
3
 10
267.906977584949
 20
382.051175145079
 30
0
 11
263.8615313219341
 21
382.051175145079
 31
0
  0
LINE
  8
1
 62
3
 10
250.8782534408891
 20
382.051175145079
 30
0
 11
245.643060746967
 21
382.051175145079
 31
0
  0
LINE
  8
1
 62
3
 10
246.277386577538
 20
363.2727272727971
 30
0
 11
250.8782534408891
 21
382.051175145079
 31
0
  0
LINE
  8
1
 62
3
 10
251.5125792714899
 20
363.2727272727971
 30
0
 11
246.277386577538
 21
363.2727272727971
 31
0
  0
LINE
  8
1
 62
3
 10
256.1134461348852
 20
382.051175145079
 30
0
 11
251.5125792714899
 21
363.2727272727971
 31
0
  0
LINE
  8
1
 62
3
 10
261.348638828808
 20
382.051175145079
 30
0
 11
256.1134461348852
 21
382.051175145079
 31
0
  0
LINE
  8
1
 62
3
 10
255.6637979062001
 20
358.848484848477
 30
0
 11
261.348638828808
 21
382.051175145079
 31
0
  0
LINE
  8
1
 62
3
 10
239.958219824279
 20
358.848484848477
 30
0
 11
255.6637979062001
 21
358.848484848477
 31
0
  0
LINE
  8
1
 62
3
 10
245.643060746967
 20
382.051175145079
 30
0
 11
239.958219824279
 21
358.848484848477
 31
0
  0
LINE
  8
1
 62
3
 10
238.301425922338
 20
393.1117812056621
 30
0
 11
227.738701733397
 21
350
 31
0
  0
LINE
  8
1
 62
3
 10
244.164841739606
 20
393.1117812056621
 30
0
 11
238.301425922338
 21
393.1117812056621
 31
0
  0
LINE
  8
1
 62
3
 10
235.1196812335149
 20
356.1939393939099
 30
0
 11
244.164841739606
 21
393.1117812056621
 31
0
  0
LINE
  8
1
 62
3
 10
100
 20
350
 30
0
 11
107.8527890410551
 21
382.051175145079
 31
0
  0
LINE
  8
1
 62
3
 10
107.8527890410551
 20
382.051175145079
 30
0
 11
114.1350202737522
 21
382.051175145079
 31
0
  0
LINE
  8
1
 62
3
 10
114.1350202737522
 20
382.051175145079
 30
0
 11
107.3662052920627
 21
354.424242424182
 31
0
  0
LINE
  8
1
 62
3
 10
107.3662052920627
 20
354.424242424182
 30
0
 11
112.6013979859417
 21
354.424242424182
 31
0
  0
LINE
  8
1
 62
3
 10
112.6013979859417
 20
354.424242424182
 30
0
 11
120.7251805418238
 21
387.581478175405
 31
0
  0
LINE
  8
1
 62
3
 10
120.7251805418238
 20
387.581478175405
 30
0
 11
103.0340846972904
 21
387.581478175405
 31
0
  0
LINE
  8
1
 62
3
 10
103.0340846972904
 20
387.581478175405
 30
0
 11
104.3890522712754
 21
393.1117812056621
 31
0
  0
LINE
  8
1
 62
3
 10
104.3890522712754
 20
393.1117812056621
 30
0
 11
128.3623793485676
 21
393.1117812056621
 31
0
  0
LINE
  8
1
 62
3
 10
128.3623793485676
 20
393.1117812056621
 30
0
 11
117.799655159648
 21
350
 31
0
  0
LINE
  8
1
 62
3
 10
117.799655159648
 20
350
 30
0
 11
100
 21
350
 31
0
  0
LINE
  8
1
 62
3
 10
121.9878093147745
 20
350
 30
0
 11
129.8405983557677
 21
382.051175145079
 31
0
  0
LINE
  8
1
 62
3
 10
129.8405983557677
 20
382.051175145079
 30
0
 11
136.1228295885776
 21
382.051175145079
 31
0
  0
LINE
  8
1
 62
3
 10
136.1228295885776
 20
382.051175145079
 30
0
 11
129.3540146067826
 21
354.424242424182
 31
0
  0
LINE
  8
1
 62
3
 10
129.3540146067826
 20
354.424242424182
 30
0
 11
134.5892073007673
 21
354.424242424182
 31
0
  0
LINE
  8
1
 62
3
 10
134.5892073007673
 20
354.424242424182
 30
0
 11
141.3580222825731
 21
382.051175145079
 31
0
  0
LINE
  8
1
 62
3
 10
139.7874644743642
 20
350
 30
0
 11
121.9878093147745
 21
350
 31
0
  0
LINE
  8
1
 62
3
 10
141.3580222825731
 20
382.051175145079
 30
0
 11
147.6402535153793
 21
382.051175145079
 31
0
  0
LINE
  8
1
 62
3
 10
147.6402535153793
 20
382.051175145079
 30
0
 11
139.7874644743642
 21
350
 31
0
  0
LINE
  8
1
 62
3
 10
168.5810242913141
 20
382.051175145079
 30
0
 11
151.8284076705422
 21
382.051175145079
 31
0
  0
LINE
  8
1
 62
3
 10
151.8284076705422
 20
382.051175145079
 30
0
 11
147.2275408071508
 21
363.2727272727971
 31
0
  0
LINE
  8
1
 62
3
 10
147.2275408071508
 20
363.2727272727971
 30
0
 11
157.6979261951166
 21
363.2727272727971
 31
0
  0
LINE
  8
1
 62
3
 10
157.6979261951166
 20
363.2727272727971
 30
0
 11
155.5299780766982
 21
354.424242424182
 31
0
  0
LINE
  8
1
 62
3
 10
155.5299780766982
 20
354.424242424182
 30
0
 11
145.0595926887872
 21
354.424242424182
 31
0
  0
LINE
  8
1
 62
3
 10
145.0595926887872
 20
354.424242424182
 30
0
 11
143.9756186294799
 21
350
 31
0
  0
LINE
  8
1
 62
3
 10
143.9756186294799
 20
350
 30
0
 11
160.7282352503025
 21
350
 31
0
  0
LINE
  8
1
 62
3
 10
160.7282352503025
 20
350
 30
0
 11
165.0641314872264
 21
367.6969696969529
 31
0
  0
LINE
  8
1
 62
3
 10
165.0641314872264
 20
367.6969696969529
 30
0
 11
154.5937460991627
 21
367.6969696969529
 31
0
  0
LINE
  8
1
 62
3
 10
154.5937460991627
 20
367.6969696969529
 30
0
 11
157.0266648441757
 21
377.626932720839
 31
0
  0
LINE
  8
1
 62
3
 10
157.0266648441757
 20
377.626932720839
 30
0
 11
167.4970502321556
 21
377.626932720839
 31
0
  0
LINE
  8
1
 62
3
 10
167.4970502321556
 20
377.626932720839
 30
0
 11
168.5810242913141
 21
382.051175145079
 31
0
  0
LINE
  8
1
 62
3
 10
186.8118599193219
 20
370.990569084413
 30
0
 11
189.5217950672519
 21
382.051175145079
 31
0
  0
LINE
  8
1
 62
3
 10
189.5217950672519
 20
382.051175145079
 30
0
 11
172.7691784465314
 21
382.051175145079
 31
0
  0
LINE
  8
1
 62
3
 10
172.7691784465314
 20
382.051175145079
 30
0
 11
164.9163894055382
 21
350
 31
0
  0
LINE
  8
1
 62
3
 10
164.9163894055382
 20
350
 30
0
 11
181.6690060262919
 21
350
 31
0
  0
LINE
  8
1
 62
3
 10
181.6690060262919
 20
350
 30
0
 11
184.3789411742661
 21
361.0606060606083
 31
0
  0
LINE
  8
1
 62
3
 10
184.3789411742661
 20
361.0606060606083
 30
0
 11
178.0967099414779
 21
361.0606060606083
 31
0
  0
LINE
  8
1
 62
3
 10
178.0967099414779
 20
361.0606060606083
 30
0
 11
176.4707488526909
 21
354.424242424182
 31
0
  0
LINE
  8
1
 62
3
 10
176.4707488526909
 20
354.424242424182
 30
0
 11
172.2825946974881
 21
354.424242424182
 31
0
  0
LINE
  8
1
 62
3
 10
172.2825946974881
 20
354.424242424182
 30
0
 11
177.9674356201178
 21
377.626932720839
 31
0
  0
LINE
  8
1
 62
3
 10
177.9674356201178
 20
377.626932720839
 30
0
 11
182.1555897753099
 21
377.626932720839
 31
0
  0
LINE
  8
1
 62
3
 10
182.1555897753099
 20
377.626932720839
 30
0
 11
180.5296286865159
 21
370.990569084413
 31
0
  0
LINE
  8
1
 62
3
 10
180.5296286865159
 20
370.990569084413
 30
0
 11
186.8118599193219
 21
370.990569084413
 31
0
  0
LINE
  8
1
 62
3
 10
185.8571601814729
 20
350
 30
0
 11
192.1393914142609
 21
350
 31
0
  0
LINE
  8
1
 62
3
 10
202.6097768023359
 20
350
 30
0
 11
210.4625658433508
 21
382.051175145079
 31
0
  0
LINE
  8
1
 62
3
 10
196.3275455694389
 20
350
 30
0
 11
199.7119530603339
 21
363.813466360341
 31
0
  0
LINE
  8
1
 62
3
 10
192.1393914142609
 20
350
 30
0
 11
195.5237989051459
 21
363.813466360341
 31
0
  0
LINE
  8
1
 62
3
 10
193.7099492224659
 20
382.051175145079
 30
0
 11
185.8571601814729
 21
350
 31
0
  0
LINE
  8
1
 62
3
 10
210.4625658433508
 20
382.051175145079
 30
0
 11
204.1803346104349
 21
382.051175145079
 31
0
  0
LINE
  8
1
 62
3
 10
206.7979309574619
 20
350
 30
0
 11
223.55054757827
 21
350
 31
0
  0
LINE
  8
1
 62
3
 10
218.3522904045678
 20
354.424242424182
 30
0
 11
214.164136249467
 21
354.424242424182
 31
0
  0
LINE
  8
1
 62
3
 10
214.6507199984591
 20
382.051175145079
 30
0
 11
206.7979309574619
 21
350
 31
0
  0
LINE
  8
1
 62
3
 10
214.164136249467
 20
354.424242424182
 30
0
 11
219.8489771720419
 21
377.626932720839
 31
0
  0
LINE
  8
1
 62
3
 10
231.4033366192889
 20
382.051175145079
 30
0
 11
214.6507199984591
 21
382.051175145079
 31
0
  0
LINE
  8
1
 62
3
 10
219.8489771720419
 20
377.626932720839
 30
0
 11
224.0371313272921
 21
377.626932720839
 31
0
  0
LINE
  8
1
 62
3
 10
224.0371313272921
 20
377.626932720839
 30
0
 11
218.3522904045678
 21
354.424242424182
 31
0
  0
LINE
  8
1
 62
3
 10
231.4033366192889
 20
382.051175145079
 30
0
 11
223.55054757827
 21
350
 31
0
  0
LINE
  8
1
 62
3
 10
199.9921804553309
 20
382.051175145079
 30
0
 11
193.7099492224659
 21
382.051175145079
 31
0
  0
LINE
  8
1
 62
3
 10
196.3275455694389
 20
350
 30
0
 11
202.6097768023359
 21
350
 31
0
  0
LINE
  8
1
 62
3
 10
195.5237989051459
 20
363.813466360341
 30
0
 11
199.7119530603339
 21
363.813466360341
 31
0
  0
LINE
  8
1
 62
3
 10
196.6077729643149
 20
368.2377087845273
 30
0
 11
200.7959271195539
 21
368.2377087845273
 31
0
  0
LINE
  8
1
 62
3
 10
196.6077729643149
 20
368.2377087845273
 30
0
 11
199.9921804553309
 21
382.051175145079
 31
0
  0
LINE
  8
1
 62
3
 10
200.7959271195539
 20
368.2377087845273
 30
0
 11
204.1803346104349
 21
382.051175145079
 31
0
  0
LINE
  8
1
 62
3
 10
165.7649031508845
 20
398.7622048583319
 30
0
 11
165.0328203819372
 21
397.9784478723632
 31
0
  0
LINE
  8
1
 62
3
 10
165.3282234693179
 20
396.979895810782
 30
0
 11
165.0328203819372
 21
397.9784478723632
 31
0
  0
ARC
  8
1
 62
3
 10
273.5145867915961
 20
399.3622336822259
 30
0
 40
1.39187009132817
 50
358.7013873342734
 51
66.54486649405746
  0
ARC
  8
1
 62
3
 10
272.7891936051061
 20
399.0530393898221
 30
0
 40
1.155889798231653
 50
0.9850581704823435
 51
82.91825463293205
  0
ARC
  8
1
 62
3
 10
272.8643762433019
 20
402.264025930551
 30
0
 40
1.257687287767218
 50
285.1995809529485
 51
80.93139523878851
  0
ARC
  8
1
 62
3
 10
272.9426940693161
 20
402.3039199213811
 30
0
 40
2.009798008861579
 50
304.0700115354152
 51
86.29788871826509
  0
CIRCLE
  8
1
 62
3
 10
272.7358752379371
 20
400.878787878755
 30
0
 40
5.530127989695984
  0
CIRCLE
  8
1
 62
3
 10
272.7358752379371
 20
400.878787878755
 30
0
 40
5.972862778753957
  0
ENDBLK
  8
0
  0
BLOCK
  8
0
  2
WANNE_MALAGA_ROUND_TREND_771
 70
0
 10
450
 20
450
 30
0
  0
LINE
  8
1
 62
7
 10
65
 20
60
 30
0
 11
350
 21
60
 31
0
  0
LINE
  8
1
 62
7
 10
840
 20
835
 30
0
 11
840
 21
550
 31
0
  0
LINE
  8
1
 62
7
 10
40
 20
85
 30
0
 11
40
 21
835
 31
0
  0
LINE
  8
1
 62
7
 10
65
 20
860
 30
0
 11
815
 21
860
 31
0
  0
LINE
  8
1
 62
7
 10
0
 20
900
 30
0
 11
900
 21
900
 31
0
  0
LINE
  8
1
 62
7
 10
0
 20
0
 30
0
 11
350
 21
0
 31
0
  0
LINE
  8
1
 62
7
 10
0
 20
0
 30
0
 11
0
 21
900
 31
0
  0
LINE
  8
1
 62
7
 10
900
 20
900
 30
0
 11
900
 21
550
 31
0
  0
LINE
  8
MITTELLINIEN
 62
3
  6
DASHDOT
 10
843.989955
 20
770
 30
0
 11
654.3219810000001
 21
770
 31
0
  0
LINE
  8
MITTELLINIEN
 62
3
  6
DASHDOT
 10
750
 20
863.9899549999971
 30
0
 11
750
 21
674.321981000001
 31
0
  0
CIRCLE
  8
GEOMETRIE
 62
7
 10
750
 20
770
 30
0
 40
45
  0
CIRCLE
  8
GEOMETRIE
 62
7
 10
750
 20
770
 30
0
 40
54.96428900000001
  0
CIRCLE
  8
GEOMETRIE
 62
7
 10
750
 20
770
 30
0
 40
68.39577899999995
  0
CIRCLE
  8
GEOMETRIE
 62
7
 10
750
 20
770
 30
0
 40
75.67802000000006
  0
ARC
  8
1
 62
7
 10
65
 20
85
 30
0
 40
25
 50
180
 51
270
  0
ARC
  8
1
 62
7
 10
815
 20
835
 30
0
 40
25
 50
0
 51
90
  0
ARC
  8
1
 62
7
 10
65
 20
835
 30
0
 40
25
 50
90
 51
180
  0
ARC
  8
1
 62
7
 10
350
 20
550
 30
0
 40
490
 50
270
 51
0
  0
ARC
  8
1
 62
7
 10
350
 20
550
 30
0
 40
550
 50
270
 51
315
  0
ARC
  8
1
 62
7
 10
350
 20
550
 30
0
 40
550
 50
315
 51
0
  0
ENDBLK
  8
0
  0
ENDSEC
  0
SECTION
  2
ENTITIES
  0
TEXT
  8
1
 62
2
 10
100
 20
275
 30
0
 40
35
  1
MALAGA Round Trend 771
 41
0.5993999999999999
  0
TEXT
  8
1
 62
3
 10
591.0840000000001
 20
660
 30
0
 40
35
  1
Ö 90
 41
0.5993999999999999
 72
2
 73
3
 11
675
 21
695
 31
0
  0
INSERT
  8
0
  2
DLX
 10
100
 20
350
 30
0
  0
INSERT
  8
0
  2
WANNE_MALAGA_ROUND_TREND_771
 10
450
 20
450
 30
0
  0
ENDSEC
  0
EOF
