  0
SECTION
  2
HEADER
  9
$ACADVER
  1
AC1014
  9
$ACADMAINTVER
 70
           0
  9
$DWGCODEPAGE
  3
ANSI_1252
  9
$INSBASE
 10
0.0
 20
0.0
 30
0.0
  9
$EXTMIN
 10
1.000000000000E+20
 20
1.000000000000E+20
 30
1.000000000000E+20
  9
$EXTMAX
 10
-1.000000000000E+20
 20
-1.000000000000E+20
 30
-1.000000000000E+20
  9
$LIMMIN
 10
0.0
 20
0.0
  9
$LIMMAX
 10
0.0
 20
0.0
  9
$ORTHOMODE
 70
           0
  9
$REGENMODE
 70
           1
  9
$FILLMODE
 70
           1
  9
$QTEXTMODE
 70
           0
  9
$MIRRTEXT
 70
           1
  9
$DRAGMODE
 70
           2
  9
$LTSCALE
 40
1.0
  9
$OSMODE
 70
           0
  9
$ATTMODE
 70
           1
  9
$TEXTSIZE
 40
0.2
  9
$TRACEWID
 40
0.05
  9
$TEXTSTYLE
  7
STANDARD
  9
$CLAYER
  8
0
  9
$CELTYPE
  6
CONTINUOUS
  9
$CECOLOR
 62
         256
  9
$CELTSCALE
 40
1.0
  9
$DELOBJ
 70
           1
  9
$DISPSILH
 70
           0
  9
$DIMSCALE
 40
1.0
  9
$DIMASZ
 40
0.18
  9
$DIMEXO
 40
0.0625
  9
$DIMDLI
 40
0.38
  9
$DIMRND
 40
0.0
  9
$DIMDLE
 40
0.0
  9
$DIMEXE
 40
0.18
  9
$DIMTP
 40
0.0
  9
$DIMTM
 40
0.0
  9
$DIMTXT
 40
0.18
  9
$DIMCEN
 40
0.09
  9
$DIMTSZ
 40
0.0
  9
$DIMTOL
 70
           0
  9
$DIMLIM
 70
           0
  9
$DIMTIH
 70
           1
  9
$DIMTOH
 70
           1
  9
$DIMSE1
 70
           0
  9
$DIMSE2
 70
           0
  9
$DIMTAD
 70
           0
  9
$DIMZIN
 70
           0
  9
$DIMBLK
  1

  9
$DIMASO
 70
           1
  9
$DIMSHO
 70
           1
  9
$DIMPOST
  1

  9
$DIMAPOST
  1

  9
$DIMALT
 70
           0
  9
$DIMALTD
 70
           2
  9
$DIMALTF
 40
25.4
  9
$DIMLFAC
 40
1.0
  9
$DIMTOFL
 70
           0
  9
$DIMTVP
 40
0.0
  9
$DIMTIX
 70
           0
  9
$DIMSOXD
 70
           0
  9
$DIMSAH
 70
           0
  9
$DIMBLK1
  1

  9
$DIMBLK2
  1

  9
$DIMSTYLE
  2
STANDARD
  9
$DIMCLRD
 70
           0
  9
$DIMCLRE
 70
           0
  9
$DIMCLRT
 70
           0
  9
$DIMTFAC
 40
1.0
  9
$DIMGAP
 40
0.09
  9
$DIMJUST
 70
           0
  9
$DIMSD1
 70
           0
  9
$DIMSD2
 70
           0
  9
$DIMTOLJ
 70
           1
  9
$DIMTZIN
 70
           0
  9
$DIMALTZ
 70
           0
  9
$DIMALTTZ
 70
           0
  9
$DIMFIT
 70
           3
  9
$DIMUPT
 70
           0
  9
$DIMUNIT
 70
           2
  9
$DIMDEC
 70
           4
  9
$DIMTDEC
 70
           4
  9
$DIMALTU
 70
           2
  9
$DIMALTTD
 70
           2
  9
$DIMTXSTY
  7
STANDARD
  9
$DIMAUNIT
 70
           0
  9
$LUNITS
 70
           2
  9
$LUPREC
 70
           4
  9
$SKETCHINC
 40
0.1
  9
$FILLETRAD
 40
0.0
  9
$AUNITS
 70
           0
  9
$AUPREC
 70
           0
  9
$MENU
  1
acad
  9
$ELEVATION
 40
0.0
  9
$PELEVATION
 40
0.0
  9
$THICKNESS
 40
0.0
  9
$LIMCHECK
 70
           0
  9
$BLIPMODE
 70
           1
  9
$CHAMFERA
 40
0.0
  9
$CHAMFERB
 40
0.0
  9
$CHAMFERC
 40
0.0
  9
$CHAMFERD
 40
0.0
  9
$SKPOLY
 70
           0
  9
$TDCREATE
 40
0.000000000
  9
$TDUPDATE
 40
0.000000000
  9
$TDINDWG
 40
0.0000000000
  9
$TDUSRTIMER
 40
0.0000000000
  9
$USRTIMER
 70
           1
  9
$ANGBASE
 50
0.0
  9
$ANGDIR
 70
           0
  9
$PDMODE
 70
           0
  9
$PDSIZE
 40
0.0
  9
$PLINEWID
 40
0.0
  9
$COORDS
 70
           0
  9
$SPLFRAME
 70
           0
  9
$SPLINETYPE
 70
           6
  9
$SPLINESEGS
 70
           8
  9
$ATTDIA
 70
           0
  9
$ATTREQ
 70
           1
  9
$HANDLING
 70
           1
  9
$HANDSEED
  5
121
  9
$SURFTAB1
 70
           6
  9
$SURFTAB2
 70
           6
  9
$SURFTYPE
 70
           6
  9
$SURFU
 70
           6
  9
$SURFV
 70
           6
  9
$UCSNAME
  2

  9
$UCSORG
 10
0.0
 20
0.0
 30
0.0
  9
$UCSXDIR
 10
1.0
 20
0.0
 30
0.0
  9
$UCSYDIR
 10
0.0
 20
1.0
 30
0.0
  9
$PUCSNAME
  2

  9
$PUCSORG
 10
0.0
 20
0.0
 30
0.0
  9
$PUCSXDIR
 10
1.0
 20
0.0
 30
0.0
  9
$PUCSYDIR
 10
0.0
 20
1.0
 30
0.0
  9
$USERI1
 70
           0
  9
$USERI2
 70
           0
  9
$USERI3
 70
           0
  9
$USERI4
 70
           0
  9
$USERI5
 70
           0
  9
$USERR1
 40
0.0
  9
$USERR2
 40
0.0
  9
$USERR3
 40
0.0
  9
$USERR4
 40
0.0
  9
$USERR5
 40
0.0
  9
$WORLDVIEW
 70
           1
  9
$SHADEDGE
 70
           3
  9
$SHADEDIF
 70
          70
  9
$TILEMODE
 70
           1
  9
$MAXACTVP
 70
          16
  9
$PINSBASE
 10
0.0
 20
0.0
 30
0.0
  9
$PLIMCHECK
 70
           0
  9
$PEXTMIN
 10
1.000000000000E+20
 20
1.000000000000E+20
 30
1.000000000000E+20
  9
$PEXTMAX
 10
-1.000000000000E+20
 20
-1.000000000000E+20
 30
-1.000000000000E+20
  9
$PLIMMIN
 10
0.0
 20
0.0
  9
$PLIMMAX
 10
12.0
 20
9.0
  9
$UNITMODE
 70
           0
  9
$VISRETAIN
 70
           0
  9
$PLINEGEN
 70
           1
  9
$PSLTSCALE
 70
           0
  9
$TREEDEPTH
 70
        3020
  9
$PICKSTYLE
 70
           1
  9
$CMLSTYLE
  2
STANDARD
  9
$CMLJUST
 70
           0
  9
$CMLSCALE
 40
1.0
  9
$PROXYGRAPHICS
 70
           0
  9
$MEASUREMENT
 70
           0
  0
ENDSEC
  0
SECTION
  2
CLASSES
  0
CLASS
  1
LWPOLYLINE
  2
AcDbPolyline
  3
"AutoCAD"
 90
        0
280
           0
281
           1
  0
CLASS
  1
IMAGE
  2
AcDbRasterImage
  3
ISM
 90
      127
280
           0
281
           1
  0
CLASS
  1
OLE2FRAME
  2
AcDbOle2Frame
  3
""
 90
        0
280
           0
281
           1
  0
CLASS
  1
HATCH
  2
AcDbHatch
  3
"ACAD_SEDONA"
 90
        0
280
           0
281
           1
  0
CLASS
  1
DICTIONARYVAR
  2
AcDbDictionaryVar
  3
"AutoCAD"
 90
        0
280
           0
281
           0
  0
CLASS
  1
RASTERVARIABLES
  2
AcDbRasterVariables
  3
ISM
 90
        0
280
           0
281
           0
  0
CLASS
  1
IMAGEDEF
  2
AcDbRasterImageDef
  3
ISM
 90
        0
280
           0
281
           0
  0
CLASS
  1
IMAGEDEF_REACTOR
  2
AcDbRasterImageDefReactor
  3
ISM
 90
        1
280
           0
281
           0
  0
CLASS
  1
IDBUFFER
  2
AcDbIdBuffer
  3
"Acad"
 90
        0
280
           0
281
           0
  0
CLASS
  1
SPATIAL_FILTER
  2
AcDbSpatialFilter
  3
"Acad"
 90
        0
280
           0
281
           0
  0
CLASS
  1
XRECORD
  2
AcDbXrecord
  3
"<Built In>"
 90
        0
280
           0
281
           0
  0
CLASS
  1
SORTENTSTABLE
  2
AcDbSortentsTable
  3
"AutoCAD"
 90
        0
280
           0
281
           0
  0
CLASS
  1
LAYER_INDEX
  2
AcDbLayerIndex
  3
"Acad"
 90
        0
280
           0
281
           0
  0
CLASS
  1
SPATIAL_INDEX
  2
AcDbSpatialIndex
  3
"Acad"
 90
        0
280
           0
281
           0
  0
CLASS
  1
OBJECT_PTR
  2
CAseDLPNTableRecord
  3
"ASE-LPNTableRecord"
 90
        1
280
           0
281
           0
  0
CLASS
  1
LAYOUT
  2
AcDbLayout
  3
"AutoCAD 2000"
 90
        1
280
           0
281
           0
  0
CLASS
  1
PLOTSETTINGS
  2
AcDbPlotSettings
  3
"AutoCAD 2000"
 90
        1
280
           0
281
           0
  0
CLASS
  1
ACDBDICTIONARYWDFLT
  2
AcDbDictionaryWithDefault
  3
"AutoCAD 2000"
 90
        1
280
           0
281
           0
  0
CLASS
  1
ACDBPLACEHOLDER
  2
AcDbPlaceHolder
  3
"AutoCAD 2000"
 90
        1
280
           0
281
           0
  0
CLASS
  1
VBA_PROJECT
  2
AcDbVbaProject
  3
"acadvba"
 90
        1
280
           0
281
           0
  0
CLASS
  1
WIPEOUT
  2
AcDbWipeout
  3
WipeOut|AutoCAD Express Tool|expresstools@autodesk.com
 90
      127
280
           0
281
           1
  0
CLASS
  1
WIPEOUTVARIABLES
  2
AcDbWipeoutVariables
  3
WipeOut|AutoCAD Express Tool|expresstools@autodesk.com
 90
        0
280
           0
281
           0
  0
CLASS
  1
RTEXT
  2
RText
  3
RText|AutoCAD Express Tool|expresstools@autodesk.com
 90
        0
280
           0
281
           1
  0
CLASS
  1
ARCALIGNEDTEXT
  2
AcDbArcAlignedText
  3
ATEXT|AutoCAD Express Tool|expresstools@autodesk.com
 90
        0
280
           0
281
           1
  0
ENDSEC
  0
SECTION
  2
TABLES
  0
TABLE
  2
VPORT
  5
7
100
AcDbSymbolTable
 70
           1
  0
VPORT
  5
15
100
AcDbSymbolTableRecord
100
AcDbViewportTableRecord
  2
*ACTIVE
 70
           0
 10
0.0
 20
0.0
 11
1.0
 21
1.0
 12
6.591288
 22
4.579184
 13
0.0
 23
0.0
 14
1.0
 24
1.0
 15
0.0
 25
0.0
 16
0.0
 26
0.0
 36
1.0
 17
0.0
 27
0.0
 37
0.0
 40
9.158369
 41
0.688564
 42
50.0
 43
0.0
 44
0.0
 50
0.0
 51
0.0
 71
           0
 72
         100
 73
           1
 74
           1
 75
           0
 76
           0
 77
           0
 78
           0
  0
ENDTAB
  0
TABLE
  2
LTYPE
  5
4
100
AcDbSymbolTable
 70
          10
  0
LTYPE
  5
11
100
AcDbSymbolTableRecord
100
AcDbLinetypeTableRecord
  2
BYBLOCK
 70
          64
  3

 72
          65
 73
           0
 40
0.0
  0
LTYPE
  5
12
100
AcDbSymbolTableRecord
100
AcDbLinetypeTableRecord
  2
BYLAYER
 70
          64
  3

 72
          65
 73
           0
 40
0.0
  0
LTYPE
  5
13
100
AcDbSymbolTableRecord
100
AcDbLinetypeTableRecord
  2
CONTINUOUS
 70
          64
  3
Solid line
 72
          65
 73
           0
 40
0.0
  0
LTYPE
  5
1D
100
AcDbSymbolTableRecord
100
AcDbLinetypeTableRecord
  2
DASHED
 70
          64
  3
Dashed
 72
          65
 73
           2
 40
15.0
 49
12.0
 74
           0
 49
-3.0
 74
           0
  0
LTYPE
  5
1E
100
AcDbSymbolTableRecord
100
AcDbLinetypeTableRecord
  2
DOTTED
 70
          64
  3
Dotted
 72
          65
 73
           2
 40
3.5
 49
0.5
 74
           0
 49
-3.0
 74
           0
  0
LTYPE
  5
1F
100
AcDbSymbolTableRecord
100
AcDbLinetypeTableRecord
  2
DOT_CENTER
 70
          64
  3
Dot_Center
 72
          65
 73
           4
 40
2.0
 49
1.25
 74
           0
 49
-0.25
 74
           0
 49
0.25
 74
           0
 49
-0.25
 74
           0
  0
LTYPE
  5
20
100
AcDbSymbolTableRecord
100
AcDbLinetypeTableRecord
  2
LONG_DASHED
 70
          64
  3
Long_Dashed
 72
          65
 73
           2
 40
2.0
 49
1.5
 74
           0
 49
-0.5
 74
           0
  0
LTYPE
  5
21
100
AcDbSymbolTableRecord
100
AcDbLinetypeTableRecord
  2
DASH_CENTER
 70
          64
  3
Dash_Center
 72
          65
 73
           4
 40
36.0
 49
24.0
 74
           0
 49
-3.0
 74
           0
 49
6.0
 74
           0
 49
-3.0
 74
           0
  0
LTYPE
  5
22
100
AcDbSymbolTableRecord
100
AcDbLinetypeTableRecord
  2
PHANTOM
 70
          64
  3
Phantom
 72
          65
 73
           6
 40
2.5
 49
1.25
 74
           0
 49
-0.25
 74
           0
 49
0.25
 74
           0
 49
-0.25
 74
           0
 49
0.25
 74
           0
 49
-0.25
 74
           0
  0
LTYPE
  5
23
100
AcDbSymbolTableRecord
100
AcDbLinetypeTableRecord
  2
CENTER_DASH_DASH
 70
          64
  3
Center_Dash_Dash
 72
          65
 73
           6
 40
22.0
 49
12.0
 74
           0
 49
-3.0
 74
           0
 49
0.5
 74
           0
 49
-3.0
 74
           0
 49
0.5
 74
           0
 49
-3.0
 74
           0
  0
ENDTAB
  0
TABLE
  2
LAYER
  5
2
100
AcDbSymbolTable
 70
           2
  0
LAYER
  5
14
100
AcDbSymbolTableRecord
100
AcDbLayerTableRecord
  2
0
 70
           0
 62
           7
  6
CONTINUOUS
  0
LAYER
  5
24
100
AcDbSymbolTableRecord
100
AcDbLayerTableRecord
  2
1
 70
           0
 62
           7
  6
CONTINUOUS
  0
ENDTAB
  0
TABLE
  2
STYLE
  5
3
100
AcDbSymbolTable
 70
           2
  0
STYLE
  5
17
100
AcDbSymbolTableRecord
100
AcDbTextStyleTableRecord
  2
STANDARD
 70
           0
 40
0.0
 41
1.0
 50
0.0
 71
           0
 42
0.0
  3
txt
  4

  0
STYLE
  5
11D
100
AcDbSymbolTableRecord
100
AcDbTextStyleTableRecord
  2
CONVERTER_1
 70
           0
 40
0.0
 41
0.71262
 50
0.0
 71
           0
 42
0.0
  3
txt.shx
  4

  0
ENDTAB
  0
TABLE
  2
VIEW
  5
5
100
AcDbSymbolTable
 70
           0
  0
ENDTAB
  0
TABLE
  2
UCS
  5
6
100
AcDbSymbolTable
 70
           0
  0
ENDTAB
  0
TABLE
  2
APPID
  5
8
100
AcDbSymbolTable
 70
           1
  0
APPID
  5
16
100
AcDbSymbolTableRecord
100
AcDbRegAppTableRecord
  2
ACAD
 70
           0
  0
ENDTAB
  0
TABLE
  2
DIMSTYLE
  5
9
100
AcDbSymbolTable
 70
           1
  0
DIMSTYLE
105
18
100
AcDbSymbolTableRecord
100
AcDbDimStyleTableRecord
  2
STANDARD
 70
           0
  3

  4

  5

  6

  7

 40
1.0
 41
0.18
 42
0.0625
 43
0.38
 44
0.18
 45
0.0
 46
0.0
 47
0.0
 48
0.0
 71
           0
 72
           0
 73
           1
 74
           1
 75
           0
 76
           0
 77
           0
 78
           0
140
0.18
141
0.09
142
0.0
143
25.4
144
1.0
145
0.0
146
1.0
147
0.09
170
           0
171
           2
172
           0
173
           0
174
           0
175
           0
176
           0
177
           0
178
           0
270
           2
271
           4
272
           4
273
           2
274
           2
275
           0
280
           0
281
           0
282
           0
283
           1
284
           0
285
           0
286
           0
287
           0
288
           0
340
17
  0
ENDTAB
  0
TABLE
  2
BLOCK_RECORD
  5
1
100
AcDbSymbolTable
 70
           3
  0
BLOCK_RECORD
  5
A
100
AcDbSymbolTableRecord
100
AcDbBlockTableRecord
  2
*MODEL_SPACE
  0
BLOCK_RECORD
  5
B
100
AcDbSymbolTableRecord
100
AcDbBlockTableRecord
  2
*PAPER_SPACE
  0
BLOCK_RECORD
  5
25
100
AcDbSymbolTableRecord
100
AcDbBlockTableRecord
  2
DLX
  0
BLOCK_RECORD
  5
27
100
AcDbSymbolTableRecord
100
AcDbBlockTableRecord
  2
WANNENF_SSE
  0
BLOCK_RECORD
  5
29
100
AcDbSymbolTableRecord
100
AcDbBlockTableRecord
  2
WANNE_MALAGA_ROUND_TREND_2
  0
ENDTAB
  0
ENDSEC
  0
SECTION
  2
BLOCKS
  0
BLOCK
  5
D
100
AcDbEntity
  8
0
100
AcDbBlockBegin
  2
*MODEL_SPACE
 70
           0
 10
0.0
 20
0.0
 30
0.0
  3
*MODEL_SPACE
  1

  0
ENDBLK
  5
E
100
AcDbEntity
  8
0
100
AcDbBlockEnd
  0
BLOCK
  5
F
100
AcDbEntity
 67
           1
  8
0
100
AcDbBlockBegin
  2
*PAPER_SPACE
 70
           0
 10
0.0
 20
0.0
 30
0.0
  3
*PAPER_SPACE
  1

  0
ENDBLK
  5
10
100
AcDbEntity
 67
           1
  8
0
100
AcDbBlockEnd
  0
BLOCK
  5
26
100
AcDbEntity
  8
0
100
AcDbBlockBegin
  2
DLX
 70
           0
 10
0.0
 20
0.0
 30
0.0
  3
DLX
  1

  0
CIRCLE
  5
E3
100
AcDbEntity
  8
1
  6
CONTINUOUS
 62
           3
100
AcDbCircle
 10
423.315040940994
 20
75.878787878755
 40
5.530127989696
  0
CIRCLE
  5
E2
100
AcDbEntity
  8
1
  6
CONTINUOUS
 62
           3
100
AcDbCircle
 10
423.315040940994
 20
75.878787878755
 40
5.972862778754
  0
ARC
  5
E1
100
AcDbEntity
  8
1
  6
CONTINUOUS
 62
           3
100
AcDbCircle
 10
424.093752494653
 20
74.362233682226
 40
1.391870091328
100
AcDbArc
 50
-1.298612665727
 51
66.544866494052
  0
ARC
  5
E0
100
AcDbEntity
  8
1
  6
CONTINUOUS
 62
           3
100
AcDbCircle
 10
423.368359308163
 20
74.053039389822
 40
1.155889798232
100
AcDbArc
 50
0.985058170485
 51
82.918254632926
  0
ARC
  5
DF
100
AcDbEntity
  8
1
  6
CONTINUOUS
 62
           3
100
AcDbCircle
 10
423.443541946359
 20
77.264025930551
 40
1.257687287767
100
AcDbArc
 50
-74.800419047057
 51
80.931395238788
  0
ARC
  5
DE
100
AcDbEntity
  8
1
  6
CONTINUOUS
 62
           3
100
AcDbCircle
 10
423.521859772373
 20
77.303919921381
 40
2.009798008862
100
AcDbArc
 50
-55.929988464579
 51
86.297888718262
  0
LINE
  5
DD
100
AcDbEntity
  8
1
  6
CONTINUOUS
 62
           3
100
AcDbLine
 10
421.785801838756
 20
78.505992531278
 11
421.785801838756
 21
76.050334541276
  0
LINE
  5
DC
100
AcDbEntity
  8
1
  6
CONTINUOUS
 62
           3
100
AcDbLine
 10
423.641774830842
 20
78.505992531278
 11
421.785801838756
 21
78.505992531278
  0
LINE
  5
DB
100
AcDbEntity
  8
1
  6
CONTINUOUS
 62
           3
100
AcDbLine
 10
421.785801838756
 20
76.050334541276
 11
423.773285066698
 21
76.050334541276
  0
LINE
  5
DA
100
AcDbEntity
  8
1
  6
CONTINUOUS
 62
           3
100
AcDbLine
 10
421.785801838756
 20
72.451055788282
 11
420.913354139641
 21
72.451055788282
  0
LINE
  5
D9
100
AcDbEntity
  8
1
  6
CONTINUOUS
 62
           3
100
AcDbLine
 10
423.510863540374
 20
75.200111213842
 11
421.785801838756
 21
75.200111213842
  0
LINE
  5
D8
100
AcDbEntity
  8
1
  6
CONTINUOUS
 62
           3
100
AcDbLine
 10
424.524078280294
 20
72.451055788282
 11
424.524078280294
 21
74.0729110559
  0
LINE
  5
D7
100
AcDbEntity
  8
1
  6
CONTINUOUS
 62
           3
100
AcDbLine
 10
425.485265095799
 20
72.451055788282
 11
424.524078280294
 21
72.451055788282
  0
LINE
  5
D6
100
AcDbEntity
  8
1
  6
CONTINUOUS
 62
           3
100
AcDbLine
 10
425.485265095799
 20
74.330689554626
 11
425.485265095799
 21
72.451055788282
  0
LINE
  5
D5
100
AcDbEntity
  8
1
  6
CONTINUOUS
 62
           3
100
AcDbLine
 10
423.355273998881
 20
79.309523963456
 11
423.651630581233
 21
79.309523963456
  0
LINE
  5
D4
100
AcDbEntity
  8
1
  6
CONTINUOUS
 62
           3
100
AcDbLine
 10
420.913354139641
 20
79.309523963456
 11
423.355273998881
 21
79.309523963456
  0
LINE
  5
D3
100
AcDbEntity
  8
1
  6
CONTINUOUS
 62
           3
100
AcDbLine
 10
420.913354139641
 20
72.451055788282
 11
420.913354139641
 21
79.309523963456
  0
LINE
  5
D2
100
AcDbEntity
  8
1
  6
CONTINUOUS
 62
           3
100
AcDbLine
 10
421.785801838756
 20
75.200111213842
 11
421.785801838756
 21
72.451055788282
  0
LINE
  5
D1
100
AcDbEntity
  8
1
  6
CONTINUOUS
 62
           3
100
AcDbLine
 10
377.264566552087
 20
81.38450847832
 11
375.170489474473
 21
81.38450847832
  0
LINE
  5
D0
100
AcDbEntity
  8
1
  6
CONTINUOUS
 62
           3
100
AcDbLine
 10
374.554631404124
 20
70.323902417793
 11
377.264566552087
 21
81.38450847832
  0
LINE
  5
CF
100
AcDbEntity
  8
1
  6
CONTINUOUS
 62
           3
100
AcDbLine
 10
385.025016792144
 20
70.323902417793
 11
374.554631404124
 21
70.323902417793
  0
LINE
  5
CE
100
AcDbEntity
  8
1
  6
CONTINUOUS
 62
           3
100
AcDbLine
 10
384.483029762483
 20
68.111781205662
 11
385.025016792144
 21
70.323902417793
  0
LINE
  5
CD
100
AcDbEntity
  8
1
  6
CONTINUOUS
 62
           3
100
AcDbLine
 10
371.918567296904
 20
68.111781205662
 11
384.483029762483
 21
68.111781205662
  0
LINE
  5
CC
100
AcDbEntity
  8
1
  6
CONTINUOUS
 62
           3
100
AcDbLine
 10
375.170489474473
 20
81.38450847832
 11
371.918567296904
 21
68.111781205662
  0
LINE
  5
CB
100
AcDbEntity
  8
1
  6
CONTINUOUS
 62
           3
100
AcDbLine
 10
361.723819419615
 20
72.536023629844
 11
365.479534558981
 21
79.172387266269
  0
LINE
  5
CA
100
AcDbEntity
  8
1
  6
CONTINUOUS
 62
           3
100
AcDbLine
 10
366.536337704271
 20
79.172387266269
 11
365.479534558981
 21
79.172387266269
  0
LINE
  5
C9
100
AcDbEntity
  8
1
  6
CONTINUOUS
 62
           3
100
AcDbLine
 10
367.040130666126
 20
72.536023629844
 11
366.536337704271
 21
79.172387266269
  0
LINE
  5
C8
100
AcDbEntity
  8
1
  6
CONTINUOUS
 62
           3
100
AcDbLine
 10
361.723819419615
 20
72.536023629844
 11
367.040130666126
 21
72.536023629844
  0
LINE
  5
C7
100
AcDbEntity
  8
1
  6
CONTINUOUS
 62
           3
100
AcDbLine
 10
359.220009326721
 20
68.111781205662
 11
356.84121233815
 21
68.111781205662
  0
LINE
  5
C6
100
AcDbEntity
  8
1
  6
CONTINUOUS
 62
           3
100
AcDbLine
 10
360.471914373084
 20
70.323902417793
 11
359.220009326721
 21
68.111781205662
  0
LINE
  5
C5
100
AcDbEntity
  8
1
  6
CONTINUOUS
 62
           3
100
AcDbLine
 10
367.208061653448
 20
70.323902417793
 11
360.471914373084
 21
70.323902417793
  0
LINE
  5
C4
100
AcDbEntity
  8
1
  6
CONTINUOUS
 62
           3
100
AcDbLine
 10
367.375992640715
 20
68.111781205662
 11
367.208061653448
 21
70.323902417793
  0
LINE
  5
C3
100
AcDbEntity
  8
1
  6
CONTINUOUS
 62
           3
100
AcDbLine
 10
369.405674803784
 20
68.111781205662
 11
367.375992640715
 21
68.111781205662
  0
LINE
  5
C2
100
AcDbEntity
  8
1
  6
CONTINUOUS
 62
           3
100
AcDbLine
 10
368.398088880022
 20
81.38450847832
 11
369.405674803784
 21
68.111781205662
  0
LINE
  5
C1
100
AcDbEntity
  8
1
  6
CONTINUOUS
 62
           3
100
AcDbLine
 10
364.352642617047
 20
81.38450847832
 11
368.398088880022
 21
81.38450847832
  0
LINE
  5
C0
100
AcDbEntity
  8
1
  6
CONTINUOUS
 62
           3
100
AcDbLine
 10
356.84121233815
 20
68.111781205662
 11
364.352642617047
 21
81.38450847832
  0
LINE
  5
BF
100
AcDbEntity
  8
1
  6
CONTINUOUS
 62
           3
100
AcDbLine
 10
343.857934457116
 20
68.111781205662
 11
341.763857379556
 21
68.111781205662
  0
LINE
  5
BE
100
AcDbEntity
  8
1
  6
CONTINUOUS
 62
           3
100
AcDbLine
 10
346.663936754045
 20
79.564485538598
 11
343.857934457116
 21
68.111781205662
  0
LINE
  5
BD
100
AcDbEntity
  8
1
  6
CONTINUOUS
 62
           3
100
AcDbLine
 10
347.304485020555
 20
77.905394629535
 11
346.663936754045
 21
79.564485538598
  0
LINE
  5
BC
100
AcDbEntity
  8
1
  6
CONTINUOUS
 62
           3
100
AcDbLine
 10
351.085641356265
 20
68.111781205662
 11
347.304485020555
 21
77.905394629535
  0
LINE
  5
BB
100
AcDbEntity
  8
1
  6
CONTINUOUS
 62
           3
100
AcDbLine
 10
354.328319845034
 20
68.111781205662
 11
351.085641356265
 21
68.111781205662
  0
LINE
  5
BA
100
AcDbEntity
  8
1
  6
CONTINUOUS
 62
           3
100
AcDbLine
 10
357.580242022654
 20
81.38450847832
 11
354.328319845034
 21
68.111781205662
  0
LINE
  5
B9
100
AcDbEntity
  8
1
  6
CONTINUOUS
 62
           3
100
AcDbLine
 10
355.48616494504
 20
81.38450847832
 11
357.580242022654
 21
81.38450847832
  0
LINE
  5
B8
100
AcDbEntity
  8
1
  6
CONTINUOUS
 62
           3
100
AcDbLine
 10
352.640733039687
 20
69.770872114746
 11
355.48616494504
 21
81.38450847832
  0
LINE
  5
B7
100
AcDbEntity
  8
1
  6
CONTINUOUS
 62
           3
100
AcDbLine
 10
348.156895173412
 20
81.38450847832
 11
352.640733039687
 21
69.770872114746
  0
LINE
  5
B6
100
AcDbEntity
  8
1
  6
CONTINUOUS
 62
           3
100
AcDbLine
 10
345.015779557071
 20
81.38450847832
 11
348.156895173412
 21
81.38450847832
  0
LINE
  5
B5
100
AcDbEntity
  8
1
  6
CONTINUOUS
 62
           3
100
AcDbLine
 10
341.763857379556
 20
68.111781205662
 11
345.015779557071
 21
81.38450847832
  0
LINE
  5
B4
100
AcDbEntity
  8
1
  6
CONTINUOUS
 62
           3
100
AcDbLine
 10
342.502887063955
 20
81.38450847832
 11
340.408809986391
 21
81.38450847832
  0
LINE
  5
B3
100
AcDbEntity
  8
1
  6
CONTINUOUS
 62
           3
100
AcDbLine
 10
340.408809986391
 20
81.38450847832
 11
337.156887808826
 21
68.111781205662
  0
LINE
  5
B2
100
AcDbEntity
  8
1
  6
CONTINUOUS
 62
           3
100
AcDbLine
 10
339.250964886386
 20
68.111781205662
 11
342.502887063955
 21
81.38450847832
  0
LINE
  5
B1
100
AcDbEntity
  8
1
  6
CONTINUOUS
 62
           3
100
AcDbLine
 10
337.156887808826
 20
68.111781205662
 11
339.250964886386
 21
68.111781205662
  0
LINE
  5
B0
100
AcDbEntity
  8
1
  6
CONTINUOUS
 62
           3
100
AcDbLine
 10
334.663667653579
 20
76.739053932891
 11
336.757744731105
 21
76.739053932891
  0
LINE
  5
AF
100
AcDbEntity
  8
1
  6
CONTINUOUS
 62
           3
100
AcDbLine
 10
333.633892297429
 20
72.536023629844
 11
333.091905267662
 21
70.323902417793
  0
LINE
  5
AE
100
AcDbEntity
  8
1
  6
CONTINUOUS
 62
           3
100
AcDbLine
 10
329.445738142029
 20
72.536023629844
 11
333.633892297429
 21
72.536023629844
  0
LINE
  5
AD
100
AcDbEntity
  8
1
  6
CONTINUOUS
 62
           3
100
AcDbLine
 10
329.987725171676
 20
74.748144842033
 11
329.445738142029
 21
72.536023629844
  0
LINE
  5
AC
100
AcDbEntity
  8
1
  6
CONTINUOUS
 62
           3
100
AcDbLine
 10
336.269956404482
 20
74.748144842033
 11
334.64399531571
 21
68.111781205662
  0
LINE
  5
AB
100
AcDbEntity
  8
1
  6
CONTINUOUS
 62
           3
100
AcDbLine
 10
336.269956404482
 20
74.748144842033
 11
329.987725171676
 21
74.748144842033
  0
LINE
  5
AA
100
AcDbEntity
  8
1
  6
CONTINUOUS
 62
           3
100
AcDbLine
 10
324.715596957332
 20
70.323902417793
 11
326.88354507566
 21
79.172387266269
  0
LINE
  5
A9
100
AcDbEntity
  8
1
  6
CONTINUOUS
 62
           3
100
AcDbLine
 10
326.88354507566
 20
79.172387266269
 11
335.259853385957
 21
79.172387266269
  0
LINE
  5
A8
100
AcDbEntity
  8
1
  6
CONTINUOUS
 62
           3
100
AcDbLine
 10
335.259853385957
 20
79.172387266269
 11
334.663667653579
 21
76.739053932891
  0
LINE
  5
A7
100
AcDbEntity
  8
1
  6
CONTINUOUS
 62
           3
100
AcDbLine
 10
333.091905267662
 20
70.323902417793
 11
324.715596957332
 21
70.323902417793
  0
LINE
  5
A6
100
AcDbEntity
  8
1
  6
CONTINUOUS
 62
           3
100
AcDbLine
 10
334.64399531571
 20
68.111781205662
 11
322.079532850097
 21
68.111781205662
  0
LINE
  5
A5
100
AcDbEntity
  8
1
  6
CONTINUOUS
 62
           3
100
AcDbLine
 10
337.895917493232
 20
81.38450847832
 11
336.757744731105
 21
76.739053932891
  0
LINE
  5
A4
100
AcDbEntity
  8
1
  6
CONTINUOUS
 62
           3
100
AcDbLine
 10
325.331455027641
 20
81.38450847832
 11
337.895917493232
 21
81.38450847832
  0
LINE
  5
A3
100
AcDbEntity
  8
1
  6
CONTINUOUS
 62
           3
100
AcDbLine
 10
322.079532850097
 20
68.111781205662
 11
325.331455027641
 21
81.38450847832
  0
LINE
  5
A2
100
AcDbEntity
  8
1
  6
CONTINUOUS
 62
           3
100
AcDbLine
 10
319.566640357112
 20
68.111781205662
 11
322.818562534522
 21
81.38450847832
  0
LINE
  5
A1
100
AcDbEntity
  8
1
  6
CONTINUOUS
 62
           3
100
AcDbLine
 10
317.472563279393
 20
68.111781205662
 11
319.566640357112
 21
68.111781205662
  0
LINE
  5
A0
100
AcDbEntity
  8
1
  6
CONTINUOUS
 62
           3
100
AcDbLine
 10
320.724485456958
 20
81.38450847832
 11
317.472563279393
 21
68.111781205662
  0
LINE
  5
9F
100
AcDbEntity
  8
1
  6
CONTINUOUS
 62
           3
100
AcDbLine
 10
322.818562534522
 20
81.38450847832
 11
320.724485456958
 21
81.38450847832
  0
LINE
  5
9E
100
AcDbEntity
  8
1
  6
CONTINUOUS
 62
           3
100
AcDbLine
 10
304.489285398355
 20
68.111781205662
 11
305.573259457466
 21
72.536023629844
  0
LINE
  5
9D
100
AcDbEntity
  8
1
  6
CONTINUOUS
 62
           3
100
AcDbLine
 10
302.395208320679
 20
68.111781205662
 11
304.489285398355
 21
68.111781205662
  0
LINE
  5
9C
100
AcDbEntity
  8
1
  6
CONTINUOUS
 62
           3
100
AcDbLine
 10
315.907389172375
 20
71.979895810782
 11
314.959670786262
 21
68.111781205662
  0
LINE
  5
9B
100
AcDbEntity
  8
1
  6
CONTINUOUS
 62
           3
100
AcDbLine
 10
307.199220546241
 20
79.172387266269
 11
306.115246487058
 21
74.748144842033
  0
LINE
  5
9A
100
AcDbEntity
  8
1
  6
CONTINUOUS
 62
           3
100
AcDbLine
 10
315.57552885676
 20
79.172387266269
 11
307.199220546241
 21
79.172387266269
  0
LINE
  5
99
100
AcDbEntity
  8
1
  6
CONTINUOUS
 62
           3
100
AcDbLine
 10
314.491554797438
 20
74.748144842033
 11
315.57552885676
 21
79.172387266269
  0
LINE
  5
98
100
AcDbEntity
  8
1
  6
CONTINUOUS
 62
           3
100
AcDbLine
 10
306.115246487058
 20
74.748144842033
 11
314.491554797438
 21
74.748144842033
  0
LINE
  5
97
100
AcDbEntity
  8
1
  6
CONTINUOUS
 62
           3
100
AcDbLine
 10
313.949567767995
 20
72.536023629844
 11
305.573259457466
 21
72.536023629844
  0
LINE
  5
96
100
AcDbEntity
  8
1
  6
CONTINUOUS
 62
           3
100
AcDbLine
 10
312.865593708622
 20
68.111781205662
 11
313.949567767995
 21
72.536023629844
  0
LINE
  5
95
100
AcDbEntity
  8
1
  6
CONTINUOUS
 62
           3
100
AcDbLine
 10
314.959670786262
 20
68.111781205662
 11
312.865593708622
 21
68.111781205662
  0
LINE
  5
94
100
AcDbEntity
  8
1
  6
CONTINUOUS
 62
           3
100
AcDbLine
 10
318.211592963795
 20
81.38450847832
 11
316.344068853942
 21
73.762204858332
  0
LINE
  5
93
100
AcDbEntity
  8
1
  6
CONTINUOUS
 62
           3
100
AcDbLine
 10
305.647130498215
 20
81.38450847832
 11
318.211592963795
 21
81.38450847832
  0
LINE
  5
92
100
AcDbEntity
  8
1
  6
CONTINUOUS
 62
           3
100
AcDbLine
 10
305.647130498215
 20
81.38450847832
 11
302.395208320679
 21
68.111781205662
  0
LINE
  5
91
100
AcDbEntity
  8
1
  6
CONTINUOUS
 62
           3
100
AcDbLine
 10
289.953917469189
 20
70.323902417793
 11
292.121865587531
 21
79.172387266269
  0
LINE
  5
90
100
AcDbEntity
  8
1
  6
CONTINUOUS
 62
           3
100
AcDbLine
 10
292.121865587531
 20
79.172387266269
 11
300.498173898021
 21
79.172387266269
  0
LINE
  5
8F
100
AcDbEntity
  8
1
  6
CONTINUOUS
 62
           3
100
AcDbLine
 10
300.498173898021
 20
79.172387266269
 11
298.330225779544
 21
70.323902417793
  0
LINE
  5
8E
100
AcDbEntity
  8
1
  6
CONTINUOUS
 62
           3
100
AcDbLine
 10
298.330225779544
 20
70.323902417793
 11
289.953917469189
 21
70.323902417793
  0
LINE
  5
8D
100
AcDbEntity
  8
1
  6
CONTINUOUS
 62
           3
100
AcDbLine
 10
299.882315827548
 20
68.111781205662
 11
287.317853362023
 21
68.111781205662
  0
LINE
  5
8C
100
AcDbEntity
  8
1
  6
CONTINUOUS
 62
           3
100
AcDbLine
 10
303.134238005223
 20
81.38450847832
 11
299.882315827548
 21
68.111781205662
  0
LINE
  5
8B
100
AcDbEntity
  8
1
  6
CONTINUOUS
 62
           3
100
AcDbLine
 10
290.569775539505
 20
81.38450847832
 11
303.134238005223
 21
81.38450847832
  0
LINE
  5
8A
100
AcDbEntity
  8
1
  6
CONTINUOUS
 62
           3
100
AcDbLine
 10
287.317853362023
 20
68.111781205662
 11
290.569775539505
 21
81.38450847832
  0
LINE
  5
89
100
AcDbEntity
  8
1
  6
CONTINUOUS
 62
           3
100
AcDbLine
 10
430.908668855264
 20
25.0
 11
378.317867436454
 21
25.0
  0
LINE
  5
88
100
AcDbEntity
  8
1
  6
CONTINUOUS
 62
           3
100
AcDbLine
 10
428.507996488745
 20
31.19393939391
 11
385.698846936572
 21
31.19393939391
  0
LINE
  5
87
100
AcDbEntity
  8
1
  6
CONTINUOUS
 62
           3
100
AcDbLine
 10
428.507996488745
 20
31.19393939391
 11
430.908668855264
 21
25.0
  0
LINE
  5
86
100
AcDbEntity
  8
1
  6
CONTINUOUS
 62
           3
100
AcDbLine
 10
421.265996411963
 20
49.878917066824
 11
418.486143288006
 21
57.051175145079
  0
LINE
  5
85
100
AcDbEntity
  8
1
  6
CONTINUOUS
 62
           3
100
AcDbLine
 10
426.863222592249
 20
57.051175145079
 11
421.265996411963
 21
49.878917066824
  0
LINE
  5
84
100
AcDbEntity
  8
1
  6
CONTINUOUS
 62
           3
100
AcDbLine
 10
430.908668855307
 20
57.051175145079
 11
426.863222592249
 21
57.051175145079
  0
LINE
  5
83
100
AcDbEntity
  8
1
  6
CONTINUOUS
 62
           3
100
AcDbLine
 10
422.608438810225
 20
46.415301218603
 11
430.908668855307
 21
57.051175145079
  0
LINE
  5
82
100
AcDbEntity
  8
1
  6
CONTINUOUS
 62
           3
100
AcDbLine
 10
427.479136903229
 20
33.848484848477
 11
422.608438810225
 21
46.415301218603
  0
LINE
  5
81
100
AcDbEntity
  8
1
  6
CONTINUOUS
 62
           3
100
AcDbLine
 10
423.433690640181
 20
33.848484848477
 11
427.479136903229
 21
33.848484848477
  0
LINE
  5
80
100
AcDbEntity
  8
1
  6
CONTINUOUS
 62
           3
100
AcDbLine
 10
419.905434945497
 20
42.951685370502
 11
423.433690640181
 21
33.848484848477
  0
LINE
  5
7F
100
AcDbEntity
  8
1
  6
CONTINUOUS
 62
           3
100
AcDbLine
 10
412.801302365395
 20
33.848484848477
 11
419.905434945497
 21
42.951685370502
  0
LINE
  5
7E
100
AcDbEntity
  8
1
  6
CONTINUOUS
 62
           3
100
AcDbLine
 10
408.755856102398
 20
33.848484848477
 11
412.801302365395
 21
33.848484848477
  0
LINE
  5
7D
100
AcDbEntity
  8
1
  6
CONTINUOUS
 62
           3
100
AcDbLine
 10
418.562992547188
 20
46.415301218661
 11
408.755856102398
 21
33.848484848477
  0
LINE
  5
7C
100
AcDbEntity
  8
1
  6
CONTINUOUS
 62
           3
100
AcDbLine
 10
414.440697024991
 20
57.051175145079
 11
418.562992547188
 21
46.415301218661
  0
LINE
  5
7B
100
AcDbEntity
  8
1
  6
CONTINUOUS
 62
           3
100
AcDbLine
 10
418.486143288006
 20
57.051175145079
 11
414.440697024991
 21
57.051175145079
  0
LINE
  5
7A
100
AcDbEntity
  8
1
  6
CONTINUOUS
 62
           3
100
AcDbLine
 10
401.457419143946
 20
57.051175145079
 11
396.222226450024
 21
57.051175145079
  0
LINE
  5
79
100
AcDbEntity
  8
1
  6
CONTINUOUS
 62
           3
100
AcDbLine
 10
396.856552280595
 20
38.272727272797
 11
401.457419143946
 21
57.051175145079
  0
LINE
  5
78
100
AcDbEntity
  8
1
  6
CONTINUOUS
 62
           3
100
AcDbLine
 10
402.091744974547
 20
38.272727272797
 11
396.856552280595
 21
38.272727272797
  0
LINE
  5
77
100
AcDbEntity
  8
1
  6
CONTINUOUS
 62
           3
100
AcDbLine
 10
406.692611837942
 20
57.051175145079
 11
402.091744974547
 21
38.272727272797
  0
LINE
  5
76
100
AcDbEntity
  8
1
  6
CONTINUOUS
 62
           3
100
AcDbLine
 10
411.927804531865
 20
57.051175145079
 11
406.692611837942
 21
57.051175145079
  0
LINE
  5
75
100
AcDbEntity
  8
1
  6
CONTINUOUS
 62
           3
100
AcDbLine
 10
406.242963609257
 20
33.848484848477
 11
411.927804531865
 21
57.051175145079
  0
LINE
  5
74
100
AcDbEntity
  8
1
  6
CONTINUOUS
 62
           3
100
AcDbLine
 10
390.537385527336
 20
33.848484848477
 11
406.242963609257
 21
33.848484848477
  0
LINE
  5
73
100
AcDbEntity
  8
1
  6
CONTINUOUS
 62
           3
100
AcDbLine
 10
396.222226450024
 20
57.051175145079
 11
390.537385527336
 21
33.848484848477
  0
LINE
  5
72
100
AcDbEntity
  8
1
  6
CONTINUOUS
 62
           3
100
AcDbLine
 10
388.880591625395
 20
68.111781205662
 11
378.317867436454
 21
25.0
  0
LINE
  5
71
100
AcDbEntity
  8
1
  6
CONTINUOUS
 62
           3
100
AcDbLine
 10
394.744007442663
 20
68.111781205662
 11
388.880591625395
 21
68.111781205662
  0
LINE
  5
70
100
AcDbEntity
  8
1
  6
CONTINUOUS
 62
           3
100
AcDbLine
 10
385.698846936572
 20
31.19393939391
 11
394.744007442663
 21
68.111781205662
  0
LINE
  5
6F
100
AcDbEntity
  8
1
  6
CONTINUOUS
 62
           3
100
AcDbLine
 10
250.579165703057
 20
25.0
 11
258.431954744112
 21
57.051175145079
  0
LINE
  5
6E
100
AcDbEntity
  8
1
  6
CONTINUOUS
 62
           3
100
AcDbLine
 10
258.431954744112
 20
57.051175145079
 11
264.714185976809
 21
57.051175145079
  0
LINE
  5
6D
100
AcDbEntity
  8
1
  6
CONTINUOUS
 62
           3
100
AcDbLine
 10
264.714185976809
 20
57.051175145079
 11
257.94537099512
 21
29.424242424182
  0
LINE
  5
6C
100
AcDbEntity
  8
1
  6
CONTINUOUS
 62
           3
100
AcDbLine
 10
257.94537099512
 20
29.424242424182
 11
263.180563688999
 21
29.424242424182
  0
LINE
  5
6B
100
AcDbEntity
  8
1
  6
CONTINUOUS
 62
           3
100
AcDbLine
 10
263.180563688999
 20
29.424242424182
 11
271.304346244881
 21
62.581478175405
  0
LINE
  5
6A
100
AcDbEntity
  8
1
  6
CONTINUOUS
 62
           3
100
AcDbLine
 10
271.304346244881
 20
62.581478175405
 11
253.613250400347
 21
62.581478175405
  0
LINE
  5
69
100
AcDbEntity
  8
1
  6
CONTINUOUS
 62
           3
100
AcDbLine
 10
253.613250400347
 20
62.581478175405
 11
254.968217974333
 21
68.111781205662
  0
LINE
  5
68
100
AcDbEntity
  8
1
  6
CONTINUOUS
 62
           3
100
AcDbLine
 10
254.968217974333
 20
68.111781205662
 11
278.941545051625
 21
68.111781205662
  0
LINE
  5
67
100
AcDbEntity
  8
1
  6
CONTINUOUS
 62
           3
100
AcDbLine
 10
278.941545051625
 20
68.111781205662
 11
268.378820862705
 21
25.0
  0
LINE
  5
66
100
AcDbEntity
  8
1
  6
CONTINUOUS
 62
           3
100
AcDbLine
 10
268.378820862705
 20
25.0
 11
250.579165703057
 21
25.0
  0
LINE
  5
65
100
AcDbEntity
  8
1
  6
CONTINUOUS
 62
           3
100
AcDbLine
 10
272.566975017832
 20
25.0
 11
280.419764058825
 21
57.051175145079
  0
LINE
  5
64
100
AcDbEntity
  8
1
  6
CONTINUOUS
 62
           3
100
AcDbLine
 10
280.419764058825
 20
57.051175145079
 11
286.701995291635
 21
57.051175145079
  0
LINE
  5
63
100
AcDbEntity
  8
1
  6
CONTINUOUS
 62
           3
100
AcDbLine
 10
286.701995291635
 20
57.051175145079
 11
279.93318030984
 21
29.424242424182
  0
LINE
  5
62
100
AcDbEntity
  8
1
  6
CONTINUOUS
 62
           3
100
AcDbLine
 10
279.93318030984
 20
29.424242424182
 11
285.168373003824
 21
29.424242424182
  0
LINE
  5
61
100
AcDbEntity
  8
1
  6
CONTINUOUS
 62
           3
100
AcDbLine
 10
285.168373003824
 20
29.424242424182
 11
291.93718798563
 21
57.051175145079
  0
LINE
  5
60
100
AcDbEntity
  8
1
  6
CONTINUOUS
 62
           3
100
AcDbLine
 10
290.366630177421
 20
25.0
 11
272.566975017832
 21
25.0
  0
LINE
  5
5F
100
AcDbEntity
  8
1
  6
CONTINUOUS
 62
           3
100
AcDbLine
 10
291.93718798563
 20
57.051175145079
 11
298.219419218436
 21
57.051175145079
  0
LINE
  5
5E
100
AcDbEntity
  8
1
  6
CONTINUOUS
 62
           3
100
AcDbLine
 10
298.219419218436
 20
57.051175145079
 11
290.366630177421
 21
25.0
  0
LINE
  5
5D
100
AcDbEntity
  8
1
  6
CONTINUOUS
 62
           3
100
AcDbLine
 10
319.160189994371
 20
57.051175145079
 11
302.407573373599
 21
57.051175145079
  0
LINE
  5
5C
100
AcDbEntity
  8
1
  6
CONTINUOUS
 62
           3
100
AcDbLine
 10
302.407573373599
 20
57.051175145079
 11
297.806706510208
 21
38.272727272797
  0
LINE
  5
5B
100
AcDbEntity
  8
1
  6
CONTINUOUS
 62
           3
100
AcDbLine
 10
297.806706510208
 20
38.272727272797
 11
308.277091898174
 21
38.272727272797
  0
LINE
  5
5A
100
AcDbEntity
  8
1
  6
CONTINUOUS
 62
           3
100
AcDbLine
 10
308.277091898174
 20
38.272727272797
 11
306.109143779755
 21
29.424242424182
  0
LINE
  5
59
100
AcDbEntity
  8
1
  6
CONTINUOUS
 62
           3
100
AcDbLine
 10
306.109143779755
 20
29.424242424182
 11
295.638758391844
 21
29.424242424182
  0
LINE
  5
58
100
AcDbEntity
  8
1
  6
CONTINUOUS
 62
           3
100
AcDbLine
 10
295.638758391844
 20
29.424242424182
 11
294.554784332537
 21
25.0
  0
LINE
  5
57
100
AcDbEntity
  8
1
  6
CONTINUOUS
 62
           3
100
AcDbLine
 10
294.554784332537
 20
25.0
 11
311.307400953359
 21
25.0
  0
LINE
  5
56
100
AcDbEntity
  8
1
  6
CONTINUOUS
 62
           3
100
AcDbLine
 10
311.307400953359
 20
25.0
 11
315.643297190283
 21
42.696969696953
  0
LINE
  5
55
100
AcDbEntity
  8
1
  6
CONTINUOUS
 62
           3
100
AcDbLine
 10
315.643297190283
 20
42.696969696953
 11
305.17291180222
 21
42.696969696953
  0
LINE
  5
54
100
AcDbEntity
  8
1
  6
CONTINUOUS
 62
           3
100
AcDbLine
 10
305.17291180222
 20
42.696969696953
 11
307.605830547233
 21
52.626932720839
  0
LINE
  5
53
100
AcDbEntity
  8
1
  6
CONTINUOUS
 62
           3
100
AcDbLine
 10
307.605830547233
 20
52.626932720839
 11
318.076215935213
 21
52.626932720839
  0
LINE
  5
52
100
AcDbEntity
  8
1
  6
CONTINUOUS
 62
           3
100
AcDbLine
 10
318.076215935213
 20
52.626932720839
 11
319.160189994371
 21
57.051175145079
  0
LINE
  5
51
100
AcDbEntity
  8
1
  6
CONTINUOUS
 62
           3
100
AcDbLine
 10
337.391025622379
 20
45.990569084413
 11
340.100960770309
 21
57.051175145079
  0
LINE
  5
50
100
AcDbEntity
  8
1
  6
CONTINUOUS
 62
           3
100
AcDbLine
 10
340.100960770309
 20
57.051175145079
 11
323.348344149588
 21
57.051175145079
  0
LINE
  5
4F
100
AcDbEntity
  8
1
  6
CONTINUOUS
 62
           3
100
AcDbLine
 10
323.348344149588
 20
57.051175145079
 11
315.495555108595
 21
25.0
  0
LINE
  5
4E
100
AcDbEntity
  8
1
  6
CONTINUOUS
 62
           3
100
AcDbLine
 10
315.495555108595
 20
25.0
 11
332.248171729349
 21
25.0
  0
LINE
  5
4D
100
AcDbEntity
  8
1
  6
CONTINUOUS
 62
           3
100
AcDbLine
 10
332.248171729349
 20
25.0
 11
334.958106877323
 21
36.060606060608
  0
LINE
  5
4C
100
AcDbEntity
  8
1
  6
CONTINUOUS
 62
           3
100
AcDbLine
 10
334.958106877323
 20
36.060606060608
 11
328.675875644535
 21
36.060606060608
  0
LINE
  5
4B
100
AcDbEntity
  8
1
  6
CONTINUOUS
 62
           3
100
AcDbLine
 10
328.675875644535
 20
36.060606060608
 11
327.049914555748
 21
29.424242424182
  0
LINE
  5
4A
100
AcDbEntity
  8
1
  6
CONTINUOUS
 62
           3
100
AcDbLine
 10
327.049914555748
 20
29.424242424182
 11
322.861760400545
 21
29.424242424182
  0
LINE
  5
49
100
AcDbEntity
  8
1
  6
CONTINUOUS
 62
           3
100
AcDbLine
 10
322.861760400545
 20
29.424242424182
 11
328.546601323175
 21
52.626932720839
  0
LINE
  5
48
100
AcDbEntity
  8
1
  6
CONTINUOUS
 62
           3
100
AcDbLine
 10
328.546601323175
 20
52.626932720839
 11
332.734755478367
 21
52.626932720839
  0
LINE
  5
47
100
AcDbEntity
  8
1
  6
CONTINUOUS
 62
           3
100
AcDbLine
 10
332.734755478367
 20
52.626932720839
 11
331.108794389573
 21
45.990569084413
  0
LINE
  5
46
100
AcDbEntity
  8
1
  6
CONTINUOUS
 62
           3
100
AcDbLine
 10
331.108794389573
 20
45.990569084413
 11
337.391025622379
 21
45.990569084413
  0
LINE
  5
45
100
AcDbEntity
  8
1
  6
CONTINUOUS
 62
           3
100
AcDbLine
 10
336.43632588453
 20
25.0
 11
342.718557117318
 21
25.0
  0
LINE
  5
44
100
AcDbEntity
  8
1
  6
CONTINUOUS
 62
           3
100
AcDbLine
 10
353.188942505393
 20
25.0
 11
361.041731546408
 21
57.051175145079
  0
LINE
  5
43
100
AcDbEntity
  8
1
  6
CONTINUOUS
 62
           3
100
AcDbLine
 10
346.906711272496
 20
25.0
 11
350.291118763391
 21
38.813466360341
  0
LINE
  5
42
100
AcDbEntity
  8
1
  6
CONTINUOUS
 62
           3
100
AcDbLine
 10
342.718557117318
 20
25.0
 11
346.102964608203
 21
38.813466360341
  0
LINE
  5
41
100
AcDbEntity
  8
1
  6
CONTINUOUS
 62
           3
100
AcDbLine
 10
344.289114925523
 20
57.051175145079
 11
336.43632588453
 21
25.0
  0
LINE
  5
40
100
AcDbEntity
  8
1
  6
CONTINUOUS
 62
           3
100
AcDbLine
 10
361.041731546408
 20
57.051175145079
 11
354.759500313492
 21
57.051175145079
  0
LINE
  5
3F
100
AcDbEntity
  8
1
  6
CONTINUOUS
 62
           3
100
AcDbLine
 10
357.377096660519
 20
25.0
 11
374.129713281327
 21
25.0
  0
LINE
  5
3E
100
AcDbEntity
  8
1
  6
CONTINUOUS
 62
           3
100
AcDbLine
 10
368.931456107625
 20
29.424242424182
 11
364.743301952524
 21
29.424242424182
  0
LINE
  5
3D
100
AcDbEntity
  8
1
  6
CONTINUOUS
 62
           3
100
AcDbLine
 10
365.229885701516
 20
57.051175145079
 11
357.377096660519
 21
25.0
  0
LINE
  5
3C
100
AcDbEntity
  8
1
  6
CONTINUOUS
 62
           3
100
AcDbLine
 10
364.743301952524
 20
29.424242424182
 11
370.428142875099
 21
52.626932720839
  0
LINE
  5
3B
100
AcDbEntity
  8
1
  6
CONTINUOUS
 62
           3
100
AcDbLine
 10
381.982502322346
 20
57.051175145079
 11
365.229885701516
 21
57.051175145079
  0
LINE
  5
3A
100
AcDbEntity
  8
1
  6
CONTINUOUS
 62
           3
100
AcDbLine
 10
370.428142875099
 20
52.626932720839
 11
374.616297030349
 21
52.626932720839
  0
LINE
  5
39
100
AcDbEntity
  8
1
  6
CONTINUOUS
 62
           3
100
AcDbLine
 10
374.616297030349
 20
52.626932720839
 11
368.931456107625
 21
29.424242424182
  0
LINE
  5
38
100
AcDbEntity
  8
1
  6
CONTINUOUS
 62
           3
100
AcDbLine
 10
381.982502322346
 20
57.051175145079
 11
374.129713281327
 21
25.0
  0
LINE
  5
37
100
AcDbEntity
  8
1
  6
CONTINUOUS
 62
           3
100
AcDbLine
 10
350.571346158388
 20
57.051175145079
 11
344.289114925523
 21
57.051175145079
  0
LINE
  5
36
100
AcDbEntity
  8
1
  6
CONTINUOUS
 62
           3
100
AcDbLine
 10
346.906711272496
 20
25.0
 11
353.188942505393
 21
25.0
  0
LINE
  5
35
100
AcDbEntity
  8
1
  6
CONTINUOUS
 62
           3
100
AcDbLine
 10
346.102964608203
 20
38.813466360341
 11
350.291118763391
 21
38.813466360341
  0
LINE
  5
34
100
AcDbEntity
  8
1
  6
CONTINUOUS
 62
           3
100
AcDbLine
 10
347.186938667372
 20
43.237708784527
 11
351.375092822611
 21
43.237708784527
  0
LINE
  5
33
100
AcDbEntity
  8
1
  6
CONTINUOUS
 62
           3
100
AcDbLine
 10
347.186938667372
 20
43.237708784527
 11
350.571346158388
 21
57.051175145079
  0
LINE
  5
32
100
AcDbEntity
  8
1
  6
CONTINUOUS
 62
           3
100
AcDbLine
 10
351.375092822611
 20
43.237708784527
 11
354.759500313492
 21
57.051175145079
  0
LINE
  5
31
100
AcDbEntity
  8
1
  6
CONTINUOUS
 62
           3
100
AcDbLine
 10
316.344068853942
 20
73.762204858332
 11
315.611986084994
 21
72.978447872363
  0
LINE
  5
30
100
AcDbEntity
  8
1
  6
CONTINUOUS
 62
           3
100
AcDbLine
 10
315.907389172375
 20
71.979895810782
 11
315.611986084994
 21
72.978447872363
  0
ENDBLK
  5
E4
100
AcDbEntity
  8
0
100
AcDbBlockEnd
  0
BLOCK
  5
28
100
AcDbEntity
  8
0
100
AcDbBlockBegin
  2
WANNENF_SSE
 70
           0
 10
0.0
 20
0.0
 30
0.0
  3
WANNENF_SSE
  1

  0
LINE
  5
105
100
AcDbEntity
  8
1
  6
CONTINUOUS
 62
           2
100
AcDbLine
 10
940.116171
 20
25.0
 11
970.116171
 21
25.0
  0
LINE
  5
104
100
AcDbEntity
  8
1
  6
CONTINUOUS
 62
           2
100
AcDbLine
 10
945.116171
 20
55.0
 11
965.116171
 21
55.0
  0
LINE
  5
103
100
AcDbEntity
  8
1
  6
CONTINUOUS
 62
           2
100
AcDbLine
 10
950.116171
 20
85.0
 11
960.116171
 21
85.0
  0
LINE
  5
102
100
AcDbEntity
  8
1
  6
CONTINUOUS
 62
           2
100
AcDbLine
 10
970.116171
 20
25.0
 11
970.116171
 21
0.0
  0
LINE
  5
101
100
AcDbEntity
  8
1
  6
CONTINUOUS
 62
           2
100
AcDbLine
 10
940.116171
 20
25.0
 11
940.116171
 21
0.0
  0
LINE
  5
100
100
AcDbEntity
  8
1
  6
CONTINUOUS
 62
           2
100
AcDbLine
 10
945.116171
 20
55.0
 11
945.116171
 21
25.0
  0
LINE
  5
FF
100
AcDbEntity
  8
1
  6
CONTINUOUS
 62
           2
100
AcDbLine
 10
965.116171
 20
55.0
 11
965.116171
 21
25.0
  0
LINE
  5
FE
100
AcDbEntity
  8
1
  6
CONTINUOUS
 62
           2
100
AcDbLine
 10
960.116171
 20
85.0
 11
965.116171
 21
55.0
  0
LINE
  5
FD
100
AcDbEntity
  8
1
  6
CONTINUOUS
 62
           2
100
AcDbLine
 10
950.116171
 20
85.0
 11
945.116171
 21
55.0
  0
LINE
  5
FC
100
AcDbEntity
  8
1
  6
CONTINUOUS
 62
           2
100
AcDbLine
 10
960.116171
 20
135.0
 11
960.116171
 21
85.0
  0
LINE
  5
FB
100
AcDbEntity
  8
1
  6
CONTINUOUS
 62
           2
100
AcDbLine
 10
950.116171
 20
135.0
 11
950.116171
 21
85.0
  0
LINE
  5
FA
100
AcDbEntity
  8
1
  6
CONTINUOUS
 62
           2
100
AcDbLine
 10
538.081656
 20
25.0
 11
568.081656000001
 21
25.0
  0
LINE
  5
F9
100
AcDbEntity
  8
1
  6
CONTINUOUS
 62
           2
100
AcDbLine
 10
543.081656
 20
55.0
 11
563.081656000001
 21
55.0
  0
LINE
  5
F8
100
AcDbEntity
  8
1
  6
CONTINUOUS
 62
           2
100
AcDbLine
 10
548.081656
 20
85.0
 11
558.081656000001
 21
85.0
  0
LINE
  5
F7
100
AcDbEntity
  8
1
  6
CONTINUOUS
 62
           2
100
AcDbLine
 10
568.081656000001
 20
25.0
 11
568.081656000001
 21
0.0
  0
LINE
  5
F6
100
AcDbEntity
  8
1
  6
CONTINUOUS
 62
           2
100
AcDbLine
 10
538.081656
 20
25.0
 11
538.081656
 21
0.0
  0
LINE
  5
F5
100
AcDbEntity
  8
1
  6
CONTINUOUS
 62
           2
100
AcDbLine
 10
543.081656
 20
55.0
 11
543.081656
 21
25.0
  0
LINE
  5
F4
100
AcDbEntity
  8
1
  6
CONTINUOUS
 62
           2
100
AcDbLine
 10
563.081656000001
 20
55.0
 11
563.081656000001
 21
25.0
  0
LINE
  5
F3
100
AcDbEntity
  8
1
  6
CONTINUOUS
 62
           2
100
AcDbLine
 10
558.081656000001
 20
85.0
 11
563.081656000001
 21
55.0
  0
LINE
  5
F2
100
AcDbEntity
  8
1
  6
CONTINUOUS
 62
           2
100
AcDbLine
 10
548.081656
 20
85.0
 11
543.081656
 21
55.0
  0
LINE
  5
F1
100
AcDbEntity
  8
1
  6
CONTINUOUS
 62
           2
100
AcDbLine
 10
558.081656000001
 20
106.54140979675
 11
558.081656000001
 21
85.0
  0
LINE
  5
F0
100
AcDbEntity
  8
1
  6
CONTINUOUS
 62
           2
100
AcDbLine
 10
548.081656
 20
106.83820287084
 11
548.081656
 21
85.0
  0
LINE
  5
EF
100
AcDbEntity
  8
1
  6
CONTINUOUS
 62
           2
100
AcDbLine
 10
202.828074
 20
25.0
 11
232.828074
 21
25.0
  0
LINE
  5
EE
100
AcDbEntity
  8
1
  6
CONTINUOUS
 62
           2
100
AcDbLine
 10
207.828074
 20
55.0
 11
227.828074
 21
55.0
  0
LINE
  5
ED
100
AcDbEntity
  8
1
  6
CONTINUOUS
 62
           2
100
AcDbLine
 10
212.828074
 20
85.0
 11
222.828074
 21
85.0
  0
LINE
  5
EC
100
AcDbEntity
  8
1
  6
CONTINUOUS
 62
           2
100
AcDbLine
 10
232.828074
 20
25.0
 11
232.828074
 21
0.0
  0
LINE
  5
EB
100
AcDbEntity
  8
1
  6
CONTINUOUS
 62
           2
100
AcDbLine
 10
202.828074
 20
25.0
 11
202.828074
 21
0.0
  0
LINE
  5
EA
100
AcDbEntity
  8
1
  6
CONTINUOUS
 62
           2
100
AcDbLine
 10
207.828074
 20
55.0
 11
207.828074
 21
25.0
  0
LINE
  5
E9
100
AcDbEntity
  8
1
  6
CONTINUOUS
 62
           2
100
AcDbLine
 10
227.828074
 20
55.0
 11
227.828074
 21
25.0
  0
LINE
  5
E8
100
AcDbEntity
  8
1
  6
CONTINUOUS
 62
           2
100
AcDbLine
 10
222.828074
 20
85.0
 11
227.828074
 21
55.0
  0
LINE
  5
E7
100
AcDbEntity
  8
1
  6
CONTINUOUS
 62
           2
100
AcDbLine
 10
212.828074
 20
85.0
 11
207.828074
 21
55.0
  0
LINE
  5
E6
100
AcDbEntity
  8
1
  6
CONTINUOUS
 62
           2
100
AcDbLine
 10
222.828074
 20
116.491503916885
 11
222.828074
 21
85.0
  0
LINE
  5
E5
100
AcDbEntity
  8
1
  6
CONTINUOUS
 62
           2
100
AcDbLine
 10
212.828074
 20
116.788296990975
 11
212.828074
 21
85.0
  0
ENDBLK
  5
106
100
AcDbEntity
  8
0
100
AcDbBlockEnd
  0
BLOCK
  5
2A
100
AcDbEntity
  8
0
100
AcDbBlockBegin
  2
WANNE_MALAGA_ROUND_TREND_2
 70
           0
 10
0.0
 20
0.0
 30
0.0
  3
WANNE_MALAGA_ROUND_TREND_2
  1

  0
ARC
  5
11A
100
AcDbEntity
  8
1
  6
CONTINUOUS
 62
           7
100
AcDbCircle
 10
56.242676417843
 20
156.451054197212
 40
15.0
100
AcDbArc
 50
-175.000003925032
 51
-91.699999990244
  0
ARC
  5
119
100
AcDbEntity
  8
1
  6
CONTINUOUS
 62
           7
100
AcDbCircle
 10
921.880599407808
 20
135.0
 40
15.0
100
AcDbArc
 50
-90.0
 51
-4.999999884545
  0
ARC
  5
118
100
AcDbEntity
  8
1
  6
CONTINUOUS
 62
           7
100
AcDbCircle
 10
35.418343700893
 20
164.999999090184
 40
5.000000909816
100
AcDbArc
 50
5.00001284626
 51
89.999996572488
  0
ARC
  5
117
100
AcDbEntity
  8
1
  6
CONTINUOUS
 62
           7
100
AcDbCircle
 10
944.581656304303
 20
164.999999084514
 40
5.000000915486
100
AcDbArc
 50
90.000003487042
 51
174.999987094202
  0
LINE
  5
116
100
AcDbEntity
  8
1
  6
CONTINUOUS
 62
           7
100
AcDbLine
 10
778.781421
 20
120.0
 11
805.000000000002
 21
98.0
  0
LINE
  5
115
100
AcDbEntity
  8
1
  6
CONTINUOUS
 62
           7
100
AcDbLine
 10
921.880599
 20
120.0
 11
895.0
 21
98.0
  0
LINE
  5
114
100
AcDbEntity
  8
1
  6
CONTINUOUS
 62
           7
100
AcDbLine
 10
936.823519881818
 20
133.692663888896
 11
939.60068250954
 21
165.435778713741
  0
LINE
  5
113
100
AcDbEntity
  8
1
  6
CONTINUOUS
 62
           7
100
AcDbLine
 10
41.299755856908
 20
155.143719079658
 11
40.399318
 21
165.435779
  0
LINE
  5
112
100
AcDbEntity
  8
1
  6
CONTINUOUS
 62
           7
100
AcDbLine
 10
732.697843
 20
121.367729000001
 11
711.454433
 21
101.989412
  0
LINE
  5
111
100
AcDbEntity
  8
1
  6
CONTINUOUS
 62
           7
100
AcDbLine
 10
87.746323061137
 20
135.0
 11
102.703356
 21
120.056722349823
  0
LINE
  5
110
100
AcDbEntity
  8
1
  6
CONTINUOUS
 62
           7
100
AcDbLine
 10
102.703356
 20
120.056722349823
 11
711.454433
 21
101.989412
  0
LINE
  5
10F
100
AcDbEntity
  8
1
  6
CONTINUOUS
 62
           7
100
AcDbLine
 10
55.79768275912
 20
141.457656295346
 11
778.781420999993
 21
120.0
  0
LINE
  5
10E
100
AcDbEntity
  8
1
  6
CONTINUOUS
 62
           7
100
AcDbLine
 10
0.0
 20
135.0
 11
273.37878408827
 21
135.0
  0
LINE
  5
10D
100
AcDbEntity
  8
1
  6
CONTINUOUS
 62
           7
100
AcDbLine
 10
936.937896651951
 20
135.0
 11
1000.0
 21
135.0
  0
LINE
  5
10C
100
AcDbEntity
  8
1
  6
CONTINUOUS
 62
           7
100
AcDbLine
 10
1000.0
 20
135.0
 11
1000.0
 21
170.0
  0
LINE
  5
10B
100
AcDbEntity
  8
1
  6
CONTINUOUS
 62
           7
100
AcDbLine
 10
0.0
 20
135.0
 11
0.0
 21
170.0
  0
LINE
  5
10A
100
AcDbEntity
  8
1
  6
CONTINUOUS
 62
           7
100
AcDbLine
 10
0.0
 20
170.0
 11
1000.0
 21
170.0
  0
LINE
  5
109
100
AcDbEntity
  8
1
  6
CONTINUOUS
 62
           7
100
AcDbLine
 10
778.781420999993
 20
120.0
 11
921.880599407808
 21
120.0
  0
LINE
  5
108
100
AcDbEntity
  8
1
  6
CONTINUOUS
 62
           7
100
AcDbLine
 10
805.000000000002
 20
98.0
 11
895.000000000002
 21
98.0
  0
LINE
  5
107
100
AcDbEntity
  8
1
  6
DOT_CENTER
 62
           3
100
AcDbLine
 10
850.0
 20
73.0
 11
850.0
 21
145.0
  0
INSERT
  5
2B
100
AcDbEntity
  8
0
100
AcDbBlockReference
  2
WANNENF_SSE
 10
0.0
 20
0.0
  0
ENDBLK
  5
11B
100
AcDbEntity
  8
0
100
AcDbBlockEnd
  0
ENDSEC
  0
SECTION
  2
ENTITIES
  0
MTEXT
  5
11F
100
AcDbEntity
  8
1
 62
           3
100
AcDbMText
 10
850.0
 20
63.0
 30
0.0
 40
35.0
 41
0.0
 71
           3
 72
           1
  1
ø 90
  7
CONVERTER_1
  0
TEXT
  5
11E
100
AcDbEntity
  8
1
 62
           2
100
AcDbText
 10
50.0
 20
195.0
 40
35.0
  1
MALAGA Round Trend 773 R
 41
0.71262
  7
CONVERTER_1
100
AcDbText
  0
INSERT
  5
2E
100
AcDbEntity
  8
0
100
AcDbBlockReference
  2
DLX
 10
0.0
 20
0.0
  0
INSERT
  5
2F
100
AcDbEntity
  8
0
100
AcDbBlockReference
  2
WANNE_MALAGA_ROUND_TREND_2
 10
0.0
 20
0.0
  0
ENDSEC
  0
SECTION
  2
OBJECTS
  0
DICTIONARY
  5
19
100
AcDbDictionary
  3
ACAD_GROUP
350
1A
  3
ACAD_MLINESTYLE
350
1B
  0
DICTIONARY
  5
1A
102
{ACAD_REACTORS
330
19
102
}
100
AcDbDictionary
  0
DICTIONARY
  5
1B
102
{ACAD_REACTORS
330
19
102
}
100
AcDbDictionary
  3
STANDARD
350
1C
  0
MLINESTYLE
  5
1C
102
{ACAD_REACTORS
330
1B
102
}
100
AcDbMlineStyle
  2
STANDARD
 70
           0
  3

 62
           0
 51
90.0
 52
90.0
 71
           2
 49
0.5
 62
         256
  6
BYLAYER
 49
-0.5
 62
         256
  6
BYLAYER
  0
ENDSEC
  0
EOF
