  0
SECTION
  2
HEADER
  9
$ACADVER
  1
AC1014
  9
$ACADMAINTVER
 70
             0
  9
$DWGCODEPAGE
  3
ANSI_1252
  9
$INSBASE
 10
0.0
 20
0.0
 30
0.0
  9
$EXTMIN
 10
1.00000000000000E+20
 20
1.00000000000000E+20
 30
1.00000000000000E+20
  9
$EXTMAX
 10
-1.00000000000000E+20
 20
-1.00000000000000E+20
 30
-1.00000000000000E+20
  9
$LIMMIN
 10
0.0
 20
0.0
  9
$LIMMAX
 10
0.0
 20
0.0
  9
$ORTHOMODE
 70
             0
  9
$REGENMODE
 70
             1
  9
$FILLMODE
 70
             1
  9
$QTEXTMODE
 70
             0
  9
$MIRRTEXT
 70
             1
  9
$DRAGMODE
 70
             2
  9
$LTSCALE
 40
1.0
  9
$OSMODE
 70
             0
  9
$ATTMODE
 70
             1
  9
$TEXTSIZE
 40
0.2
  9
$TRACEWID
 40
0.05
  9
$TEXTSTYLE
  7
STANDARD
  9
$CLAYER
  8
0
  9
$CELTYPE
  6
CONTINUOUS
  9
$CECOLOR
 62
           256
  9
$CELTSCALE
 40
1.0
  9
$DELOBJ
 70
             1
  9
$DISPSILH
 70
             0
  9
$DIMSCALE
 40
1.0
  9
$DIMASZ
 40
0.18
  9
$DIMEXO
 40
0.0625
  9
$DIMDLI
 40
0.38
  9
$DIMRND
 40
0.0
  9
$DIMDLE
 40
0.0
  9
$DIMEXE
 40
0.18
  9
$DIMTP
 40
0.0
  9
$DIMTM
 40
0.0
  9
$DIMTXT
 40
0.18
  9
$DIMCEN
 40
0.09
  9
$DIMTSZ
 40
0.0
  9
$DIMTOL
 70
             0
  9
$DIMLIM
 70
             0
  9
$DIMTIH
 70
             1
  9
$DIMTOH
 70
             1
  9
$DIMSE1
 70
             0
  9
$DIMSE2
 70
             0
  9
$DIMTAD
 70
             0
  9
$DIMZIN
 70
             0
  9
$DIMBLK
  1

  9
$DIMASO
 70
             1
  9
$DIMSHO
 70
             1
  9
$DIMPOST
  1

  9
$DIMAPOST
  1

  9
$DIMALT
 70
             0
  9
$DIMALTD
 70
             2
  9
$DIMALTF
 40
25.4
  9
$DIMLFAC
 40
1.0
  9
$DIMTOFL
 70
             0
  9
$DIMTVP
 40
0.0
  9
$DIMTIX
 70
             0
  9
$DIMSOXD
 70
             0
  9
$DIMSAH
 70
             0
  9
$DIMBLK1
  1

  9
$DIMBLK2
  1

  9
$DIMSTYLE
  2
STANDARD
  9
$DIMCLRD
 70
             0
  9
$DIMCLRE
 70
             0
  9
$DIMCLRT
 70
             0
  9
$DIMTFAC
 40
1.0
  9
$DIMGAP
 40
0.09
  9
$DIMJUST
 70
             0
  9
$DIMSD1
 70
             0
  9
$DIMSD2
 70
             0
  9
$DIMTOLJ
 70
             1
  9
$DIMTZIN
 70
             0
  9
$DIMALTZ
 70
             0
  9
$DIMALTTZ
 70
             0
  9
$DIMFIT
 70
             3
  9
$DIMUPT
 70
             0
  9
$DIMUNIT
 70
             2
  9
$DIMDEC
 70
             4
  9
$DIMTDEC
 70
             4
  9
$DIMALTU
 70
             2
  9
$DIMALTTD
 70
             2
  9
$DIMTXSTY
  7
STANDARD
  9
$DIMAUNIT
 70
             0
  9
$LUNITS
 70
             2
  9
$LUPREC
 70
             4
  9
$SKETCHINC
 40
0.1
  9
$FILLETRAD
 40
0.0
  9
$AUNITS
 70
             0
  9
$AUPREC
 70
             0
  9
$MENU
  1
acad
  9
$ELEVATION
 40
0.0
  9
$PELEVATION
 40
0.0
  9
$THICKNESS
 40
0.0
  9
$LIMCHECK
 70
             0
  9
$BLIPMODE
 70
             1
  9
$CHAMFERA
 40
0.0
  9
$CHAMFERB
 40
0.0
  9
$CHAMFERC
 40
0.0
  9
$CHAMFERD
 40
0.0
  9
$SKPOLY
 70
             0
  9
$TDCREATE
 40
0.000000000
  9
$TDUPDATE
 40
0.000000000
  9
$TDINDWG
 40
0.0000000000
  9
$TDUSRTIMER
 40
0.0000000000
  9
$USRTIMER
 70
             1
  9
$ANGBASE
 50
0.0
  9
$ANGDIR
 70
             0
  9
$PDMODE
 70
             0
  9
$PDSIZE
 40
0.0
  9
$PLINEWID
 40
0.0
  9
$COORDS
 70
             0
  9
$SPLFRAME
 70
             0
  9
$SPLINETYPE
 70
             6
  9
$SPLINESEGS
 70
             8
  9
$ATTDIA
 70
             0
  9
$ATTREQ
 70
             1
  9
$HANDLING
 70
             1
  9
$HANDSEED
  5
FC
  9
$SURFTAB1
 70
             6
  9
$SURFTAB2
 70
             6
  9
$SURFTYPE
 70
             6
  9
$SURFU
 70
             6
  9
$SURFV
 70
             6
  9
$UCSNAME
  2

  9
$UCSORG
 10
0.0
 20
0.0
 30
0.0
  9
$UCSXDIR
 10
1.0
 20
0.0
 30
0.0
  9
$UCSYDIR
 10
0.0
 20
1.0
 30
0.0
  9
$PUCSNAME
  2

  9
$PUCSORG
 10
0.0
 20
0.0
 30
0.0
  9
$PUCSXDIR
 10
1.0
 20
0.0
 30
0.0
  9
$PUCSYDIR
 10
0.0
 20
1.0
 30
0.0
  9
$USERI1
 70
             0
  9
$USERI2
 70
             0
  9
$USERI3
 70
             0
  9
$USERI4
 70
             0
  9
$USERI5
 70
             0
  9
$USERR1
 40
11.6
  9
$USERR2
 40
0.0
  9
$USERR3
 40
0.0
  9
$USERR4
 40
0.0
  9
$USERR5
 40
0.0
  9
$WORLDVIEW
 70
             1
  9
$SHADEDGE
 70
             3
  9
$SHADEDIF
 70
            70
  9
$TILEMODE
 70
             1
  9
$MAXACTVP
 70
            16
  9
$PINSBASE
 10
0.0
 20
0.0
 30
0.0
  9
$PLIMCHECK
 70
             0
  9
$PEXTMIN
 10
1.00000000000000E+20
 20
1.00000000000000E+20
 30
1.00000000000000E+20
  9
$PEXTMAX
 10
-1.00000000000000E+20
 20
-1.00000000000000E+20
 30
-1.00000000000000E+20
  9
$PLIMMIN
 10
0.0
 20
0.0
  9
$PLIMMAX
 10
12.0
 20
9.0
  9
$UNITMODE
 70
             0
  9
$VISRETAIN
 70
             0
  9
$PLINEGEN
 70
             1
  9
$PSLTSCALE
 70
             0
  9
$TREEDEPTH
 70
          3020
  9
$PICKSTYLE
 70
             1
  9
$CMLSTYLE
  2
STANDARD
  9
$CMLJUST
 70
             0
  9
$CMLSCALE
 40
1.0
  9
$PROXYGRAPHICS
 70
             0
  9
$MEASUREMENT
 70
             1
  0
ENDSEC
  0
SECTION
  2
CLASSES
  0
CLASS
  1
LWPOLYLINE
  2
AcDbPolyline
  3
"AutoCAD"
 90
        0
280
             0
281
             1
  0
CLASS
  1
IMAGE
  2
AcDbRasterImage
  3
ISM
 90
      127
280
             0
281
             1
  0
CLASS
  1
OLE2FRAME
  2
AcDbOle2Frame
  3
""
 90
        0
280
             0
281
             1
  0
CLASS
  1
HATCH
  2
AcDbHatch
  3
"ACAD_SEDONA"
 90
        0
280
             0
281
             1
  0
CLASS
  1
DICTIONARYVAR
  2
AcDbDictionaryVar
  3
"AutoCAD"
 90
        0
280
             0
281
             0
  0
CLASS
  1
RASTERVARIABLES
  2
AcDbRasterVariables
  3
ISM
 90
        0
280
             0
281
             0
  0
CLASS
  1
IMAGEDEF
  2
AcDbRasterImageDef
  3
ISM
 90
        0
280
             0
281
             0
  0
CLASS
  1
IMAGEDEF_REACTOR
  2
AcDbRasterImageDefReactor
  3
ISM
 90
        1
280
             0
281
             0
  0
CLASS
  1
IDBUFFER
  2
AcDbIdBuffer
  3
"Acad"
 90
        0
280
             0
281
             0
  0
CLASS
  1
SPATIAL_FILTER
  2
AcDbSpatialFilter
  3
"Acad"
 90
        0
280
             0
281
             0
  0
CLASS
  1
XRECORD
  2
AcDbXrecord
  3
"<Built In>"
 90
        0
280
             0
281
             0
  0
CLASS
  1
SORTENTSTABLE
  2
AcDbSortentsTable
  3
"AutoCAD"
 90
        0
280
             0
281
             0
  0
CLASS
  1
LAYER_INDEX
  2
AcDbLayerIndex
  3
"Acad"
 90
        0
280
             0
281
             0
  0
CLASS
  1
SPATIAL_INDEX
  2
AcDbSpatialIndex
  3
"Acad"
 90
        0
280
             0
281
             0
  0
CLASS
  1
OBJECT_PTR
  2
CAseDLPNTableRecord
  3
"ASE-LPNTableRecord"
 90
        1
280
             0
281
             0
  0
CLASS
  1
LAYOUT
  2
AcDbLayout
  3
"AutoCAD 2000"
 90
        1
280
             0
281
             0
  0
CLASS
  1
PLOTSETTINGS
  2
AcDbPlotSettings
  3
"AutoCAD 2000"
 90
        1
280
             0
281
             0
  0
CLASS
  1
ACDBDICTIONARYWDFLT
  2
AcDbDictionaryWithDefault
  3
"AutoCAD 2000"
 90
        1
280
             0
281
             0
  0
CLASS
  1
ACDBPLACEHOLDER
  2
AcDbPlaceHolder
  3
"AutoCAD 2000"
 90
        1
280
             0
281
             0
  0
ENDSEC
  0
SECTION
  2
TABLES
  0
TABLE
  2
VPORT
  5
7
100
AcDbSymbolTable
 70
             1
  0
VPORT
  5
15
100
AcDbSymbolTableRecord
100
AcDbViewportTableRecord
  2
*ACTIVE
 70
             0
 10
0.0
 20
0.0
 11
1.0
 21
1.0
 12
451.17981860503716
 22
373.82018479954337
 13
0.0
 23
0.0
 14
1.0
 24
1.0
 15
0.0
 25
0.0
 16
0.0
 26
0.0
 36
1.0
 17
0.0
 27
0.0
 37
0.0
 40
827.59559344150841
 41
1.60267857142857
 42
50.0
 43
0.0
 44
0.0
 50
0.0
 51
0.0
 71
             0
 72
           100
 73
             1
 74
             1
 75
             0
 76
             0
 77
             0
 78
             0
  0
ENDTAB
  0
TABLE
  2
LTYPE
  5
4
100
AcDbSymbolTable
 70
            10
  0
LTYPE
  5
11
100
AcDbSymbolTableRecord
100
AcDbLinetypeTableRecord
  2
BYBLOCK
 70
            64
  3

 72
            65
 73
             0
 40
0.0
  0
LTYPE
  5
12
100
AcDbSymbolTableRecord
100
AcDbLinetypeTableRecord
  2
BYLAYER
 70
            64
  3

 72
            65
 73
             0
 40
0.0
  0
LTYPE
  5
13
100
AcDbSymbolTableRecord
100
AcDbLinetypeTableRecord
  2
CONTINUOUS
 70
            64
  3
Solid line
 72
            65
 73
             0
 40
0.0
  0
LTYPE
  5
1D
100
AcDbSymbolTableRecord
100
AcDbLinetypeTableRecord
  2
DASHED
 70
            64
  3
Dashed
 72
            65
 73
             2
 40
15.0
 49
12.0
 74
             0
 49
-3.0
 74
             0
  0
LTYPE
  5
1E
100
AcDbSymbolTableRecord
100
AcDbLinetypeTableRecord
  2
DOTTED
 70
            64
  3
Dotted
 72
            65
 73
             2
 40
3.5
 49
0.5
 74
             0
 49
-3.0
 74
             0
  0
LTYPE
  5
1F
100
AcDbSymbolTableRecord
100
AcDbLinetypeTableRecord
  2
DOT_CENTER
 70
            64
  3
Dot_Center
 72
            65
 73
             4
 40
2.0
 49
1.25
 74
             0
 49
-0.25
 74
             0
 49
0.25
 74
             0
 49
-0.25
 74
             0
  0
LTYPE
  5
20
100
AcDbSymbolTableRecord
100
AcDbLinetypeTableRecord
  2
LONG_DASHED
 70
            64
  3
Long_Dashed
 72
            65
 73
             2
 40
2.0
 49
1.5
 74
             0
 49
-0.5
 74
             0
  0
LTYPE
  5
21
100
AcDbSymbolTableRecord
100
AcDbLinetypeTableRecord
  2
DASH_CENTER
 70
            64
  3
Dash_Center
 72
            65
 73
             4
 40
36.0
 49
24.0
 74
             0
 49
-3.0
 74
             0
 49
6.0
 74
             0
 49
-3.0
 74
             0
  0
LTYPE
  5
22
100
AcDbSymbolTableRecord
100
AcDbLinetypeTableRecord
  2
PHANTOM
 70
            64
  3
Phantom
 72
            65
 73
             6
 40
2.5
 49
1.25
 74
             0
 49
-0.25
 74
             0
 49
0.25
 74
             0
 49
-0.25
 74
             0
 49
0.25
 74
             0
 49
-0.25
 74
             0
  0
LTYPE
  5
23
100
AcDbSymbolTableRecord
100
AcDbLinetypeTableRecord
  2
CENTER_DASH_DASH
 70
            64
  3
Center_Dash_Dash
 72
            65
 73
             6
 40
22.0
 49
12.0
 74
             0
 49
-3.0
 74
             0
 49
0.5
 74
             0
 49
-3.0
 74
             0
 49
0.5
 74
             0
 49
-3.0
 74
             0
  0
ENDTAB
  0
TABLE
  2
LAYER
  5
2
100
AcDbSymbolTable
 70
             5
  0
LAYER
  5
14
100
AcDbSymbolTableRecord
100
AcDbLayerTableRecord
  2
0
 70
             0
 62
             7
  6
CONTINUOUS
  0
LAYER
  5
24
100
AcDbSymbolTableRecord
100
AcDbLayerTableRecord
  2
MITTELLINIEN
 70
             0
 62
             7
  6
CONTINUOUS
  0
LAYER
  5
25
100
AcDbSymbolTableRecord
100
AcDbLayerTableRecord
  2
1
 70
             0
 62
             7
  6
CONTINUOUS
  0
LAYER
  5
26
100
AcDbSymbolTableRecord
100
AcDbLayerTableRecord
  2
GEOMETRIE
 70
             0
 62
             7
  6
CONTINUOUS
  0
LAYER
  5
27
100
AcDbSymbolTableRecord
100
AcDbLayerTableRecord
  2
WANNE
 70
             0
 62
             7
  6
CONTINUOUS
  0
ENDTAB
  0
TABLE
  2
STYLE
  5
3
100
AcDbSymbolTable
 70
             2
  0
STYLE
  5
17
100
AcDbSymbolTableRecord
100
AcDbTextStyleTableRecord
  2
STANDARD
 70
             0
 40
0.0
 41
1.0
 50
0.0
 71
             0
 42
0.0
  3
txt
  4

  0
STYLE
  5
F8
100
AcDbSymbolTableRecord
100
AcDbTextStyleTableRecord
  2
CONVERTER_1
 70
             0
 40
0.0
 41
0.71262
 50
0.0
 71
             0
 42
0.0
  3
txt.shx
  4

  0
ENDTAB
  0
TABLE
  2
VIEW
  5
5
100
AcDbSymbolTable
 70
             0
  0
ENDTAB
  0
TABLE
  2
UCS
  5
6
100
AcDbSymbolTable
 70
             0
  0
ENDTAB
  0
TABLE
  2
APPID
  5
8
100
AcDbSymbolTable
 70
             1
  0
APPID
  5
16
100
AcDbSymbolTableRecord
100
AcDbRegAppTableRecord
  2
ACAD
 70
             0
  0
ENDTAB
  0
TABLE
  2
DIMSTYLE
  5
9
100
AcDbSymbolTable
 70
             1
  0
DIMSTYLE
105
18
100
AcDbSymbolTableRecord
100
AcDbDimStyleTableRecord
  2
STANDARD
 70
             0
  3

  4

  5

  6

  7

 40
1.0
 41
0.18
 42
0.0625
 43
0.38
 44
0.18
 45
0.0
 46
0.0
 47
0.0
 48
0.0
 71
             0
 72
             0
 73
             1
 74
             1
 75
             0
 76
             0
 77
             0
 78
             0
140
0.18
141
0.09
142
0.0
143
25.4
144
1.0
145
0.0
146
1.0
147
0.09
170
             0
171
             2
172
             0
173
             0
174
             0
175
             0
176
             0
177
             0
178
             0
270
             2
271
             4
272
             4
273
             2
274
             2
275
             0
280
             0
281
             0
282
             0
283
             1
284
             0
285
             0
286
             0
287
             0
288
             0
340
17
  0
ENDTAB
  0
TABLE
  2
BLOCK_RECORD
  5
1
100
AcDbSymbolTable
 70
             2
  0
BLOCK_RECORD
  5
A
100
AcDbSymbolTableRecord
100
AcDbBlockTableRecord
  2
*MODEL_SPACE
  0
BLOCK_RECORD
  5
B
100
AcDbSymbolTableRecord
100
AcDbBlockTableRecord
  2
*PAPER_SPACE
  0
BLOCK_RECORD
  5
28
100
AcDbSymbolTableRecord
100
AcDbBlockTableRecord
  2
DLX
  0
BLOCK_RECORD
  5
2A
100
AcDbSymbolTableRecord
100
AcDbBlockTableRecord
  2
WANNE_PICCOLO_CITY_669
  0
ENDTAB
  0
ENDSEC
  0
SECTION
  2
BLOCKS
  0
BLOCK
  5
D
100
AcDbEntity
  8
0
100
AcDbBlockBegin
  2
*MODEL_SPACE
 70
             0
 10
0.0
 20
0.0
 30
0.0
  3
*MODEL_SPACE
  1

  0
ENDBLK
  5
E
100
AcDbEntity
  8
0
100
AcDbBlockEnd
  0
BLOCK
  5
F
100
AcDbEntity
 67
             1
  8
0
100
AcDbBlockBegin
  2
*PAPER_SPACE
 70
             0
 10
0.0
 20
0.0
 30
0.0
  3
*PAPER_SPACE
  1

  0
ENDBLK
  5
10
100
AcDbEntity
 67
             1
  8
0
100
AcDbBlockEnd
  0
BLOCK
  5
29
100
AcDbEntity
  8
0
100
AcDbBlockBegin
  2
DLX
 70
             0
 10
350.0
 20
575.0
 30
0.0
  3
DLX
  1

  0
CIRCLE
  5
E3
100
AcDbEntity
  8
1
  6
CONTINUOUS
 62
             3
100
AcDbCircle
 10
522.73587523793708
 20
625.87878787875479
 40
5.53012798969621
  0
CIRCLE
  5
E2
100
AcDbEntity
  8
1
  6
CONTINUOUS
 62
             3
100
AcDbCircle
 10
522.73587523793708
 20
625.87878787875479
 40
5.97286277875418
  0
ARC
  5
E1
100
AcDbEntity
  8
1
  6
CONTINUOUS
 62
             3
100
AcDbCircle
 10
523.514586791596
 20
624.36223368222591
 40
1.39187009132818
100
AcDbArc
 50
-1.298612665736
 51
66.54486649405038
  0
ARC
  5
E0
100
AcDbEntity
  8
1
  6
CONTINUOUS
 62
             3
100
AcDbCircle
 10
522.78919360510599
 20
624.05303938982206
 40
1.15588979823165
100
AcDbArc
 50
0.98505817048516
 51
82.91825463292646
  0
ARC
  5
DF
100
AcDbEntity
  8
1
  6
CONTINUOUS
 62
             3
100
AcDbCircle
 10
522.86437624330188
 20
627.26402593055082
 40
1.25768728776724
100
AcDbArc
 50
-74.80041904705718
 51
80.93139523878973
  0
ARC
  5
DE
100
AcDbEntity
  8
1
  6
CONTINUOUS
 62
             3
100
AcDbCircle
 10
522.94269406931608
 20
627.30391992138084
 40
2.00979800886148
100
AcDbArc
 50
-55.92998846458301
 51
86.2978887182655
  0
LINE
  5
DD
100
AcDbEntity
  8
1
  6
CONTINUOUS
 62
             3
100
AcDbLine
 10
521.206636135699
 20
628.50599253127803
 11
521.206636135699
 21
626.05033454127579
  0
LINE
  5
DC
100
AcDbEntity
  8
1
  6
CONTINUOUS
 62
             3
100
AcDbLine
 10
523.06260912778498
 20
628.50599253127803
 11
521.206636135699
 21
628.50599253127803
  0
LINE
  5
DB
100
AcDbEntity
  8
1
  6
CONTINUOUS
 62
             3
100
AcDbLine
 10
521.206636135699
 20
626.05033454127579
 11
523.19411936364099
 21
626.05033454127579
  0
LINE
  5
DA
100
AcDbEntity
  8
1
  6
CONTINUOUS
 62
             3
100
AcDbLine
 10
521.206636135699
 20
622.45105578828202
 11
520.33418843658387
 21
622.45105578828202
  0
LINE
  5
D9
100
AcDbEntity
  8
1
  6
CONTINUOUS
 62
             3
100
AcDbLine
 10
522.93169783731707
 20
625.20011121384186
 11
521.206636135699
 21
625.20011121384186
  0
LINE
  5
D8
100
AcDbEntity
  8
1
  6
CONTINUOUS
 62
             3
100
AcDbLine
 10
523.94491257723689
 20
622.45105578828202
 11
523.94491257723689
 21
624.07291105590002
  0
LINE
  5
D7
100
AcDbEntity
  8
1
  6
CONTINUOUS
 62
             3
100
AcDbLine
 10
524.90609939274191
 20
622.45105578828202
 11
523.94491257723689
 21
622.45105578828202
  0
LINE
  5
D6
100
AcDbEntity
  8
1
  6
CONTINUOUS
 62
             3
100
AcDbLine
 10
524.90609939274191
 20
624.33068955462568
 11
524.90609939274191
 21
622.45105578828202
  0
LINE
  5
D5
100
AcDbEntity
  8
1
  6
CONTINUOUS
 62
             3
100
AcDbLine
 10
522.77610829582397
 20
629.30952396345606
 11
523.07246487817588
 21
629.30952396345606
  0
LINE
  5
D4
100
AcDbEntity
  8
1
  6
CONTINUOUS
 62
             3
100
AcDbLine
 10
520.33418843658387
 20
629.30952396345606
 11
522.77610829582397
 21
629.30952396345606
  0
LINE
  5
D3
100
AcDbEntity
  8
1
  6
CONTINUOUS
 62
             3
100
AcDbLine
 10
520.33418843658387
 20
622.45105578828202
 11
520.33418843658387
 21
629.30952396345606
  0
LINE
  5
D2
100
AcDbEntity
  8
1
  6
CONTINUOUS
 62
             3
100
AcDbLine
 10
521.206636135699
 20
625.20011121384186
 11
521.206636135699
 21
622.45105578828202
  0
LINE
  5
D1
100
AcDbEntity
  8
1
  6
CONTINUOUS
 62
             3
100
AcDbLine
 10
476.68540084902997
 20
631.38450847831996
 11
474.591323771416
 21
631.38450847831996
  0
LINE
  5
D0
100
AcDbEntity
  8
1
  6
CONTINUOUS
 62
             3
100
AcDbLine
 10
473.97546570106692
 20
620.32390241779285
 11
476.68540084902997
 21
631.38450847831996
  0
LINE
  5
CF
100
AcDbEntity
  8
1
  6
CONTINUOUS
 62
             3
100
AcDbLine
 10
484.445851089087
 20
620.32390241779285
 11
473.97546570106692
 21
620.32390241779285
  0
LINE
  5
CE
100
AcDbEntity
  8
1
  6
CONTINUOUS
 62
             3
100
AcDbLine
 10
483.90386405942581
 20
618.11178120566183
 11
484.445851089087
 21
620.32390241779285
  0
LINE
  5
CD
100
AcDbEntity
  8
1
  6
CONTINUOUS
 62
             3
100
AcDbLine
 10
471.33940159384701
 20
618.11178120566183
 11
483.90386405942581
 21
618.11178120566183
  0
LINE
  5
CC
100
AcDbEntity
  8
1
  6
CONTINUOUS
 62
             3
100
AcDbLine
 10
474.591323771416
 20
631.38450847831996
 11
471.33940159384701
 21
618.11178120566183
  0
LINE
  5
CB
100
AcDbEntity
  8
1
  6
CONTINUOUS
 62
             3
100
AcDbLine
 10
461.14465371655808
 20
622.53602362984384
 11
464.90036885592377
 21
629.17238726626874
  0
LINE
  5
CA
100
AcDbEntity
  8
1
  6
CONTINUOUS
 62
             3
100
AcDbLine
 10
465.95717200121402
 20
629.17238726626874
 11
464.90036885592377
 21
629.17238726626874
  0
LINE
  5
C9
100
AcDbEntity
  8
1
  6
CONTINUOUS
 62
             3
100
AcDbLine
 10
466.46096496306882
 20
622.53602362984384
 11
465.95717200121402
 21
629.17238726626874
  0
LINE
  5
C8
100
AcDbEntity
  8
1
  6
CONTINUOUS
 62
             3
100
AcDbLine
 10
461.14465371655808
 20
622.53602362984384
 11
466.46096496306882
 21
622.53602362984384
  0
LINE
  5
C7
100
AcDbEntity
  8
1
  6
CONTINUOUS
 62
             3
100
AcDbLine
 10
458.64084362366373
 20
618.11178120566183
 11
456.26204663509282
 21
618.11178120566183
  0
LINE
  5
C6
100
AcDbEntity
  8
1
  6
CONTINUOUS
 62
             3
100
AcDbLine
 10
459.892748670027
 20
620.32390241779285
 11
458.64084362366373
 21
618.11178120566183
  0
LINE
  5
C5
100
AcDbEntity
  8
1
  6
CONTINUOUS
 62
             3
100
AcDbLine
 10
466.62889595039098
 20
620.32390241779285
 11
459.892748670027
 21
620.32390241779285
  0
LINE
  5
C4
100
AcDbEntity
  8
1
  6
CONTINUOUS
 62
             3
100
AcDbLine
 10
466.7968269376579
 20
618.11178120566183
 11
466.62889595039098
 21
620.32390241779285
  0
LINE
  5
C3
100
AcDbEntity
  8
1
  6
CONTINUOUS
 62
             3
100
AcDbLine
 10
468.82650910072698
 20
618.11178120566183
 11
466.7968269376579
 21
618.11178120566183
  0
LINE
  5
C2
100
AcDbEntity
  8
1
  6
CONTINUOUS
 62
             3
100
AcDbLine
 10
467.81892317696497
 20
631.38450847831996
 11
468.82650910072698
 21
618.11178120566183
  0
LINE
  5
C1
100
AcDbEntity
  8
1
  6
CONTINUOUS
 62
             3
100
AcDbLine
 10
463.77347691399012
 20
631.38450847831996
 11
467.81892317696497
 21
631.38450847831996
  0
LINE
  5
C0
100
AcDbEntity
  8
1
  6
CONTINUOUS
 62
             3
100
AcDbLine
 10
456.26204663509282
 20
618.11178120566183
 11
463.77347691399012
 21
631.38450847831996
  0
LINE
  5
BF
100
AcDbEntity
  8
1
  6
CONTINUOUS
 62
             3
100
AcDbLine
 10
443.27876875405889
 20
618.11178120566183
 11
441.18469167649891
 21
618.11178120566183
  0
LINE
  5
BE
100
AcDbEntity
  8
1
  6
CONTINUOUS
 62
             3
100
AcDbLine
 10
446.08477105098791
 20
629.56448553859764
 11
443.27876875405889
 21
618.11178120566183
  0
LINE
  5
BD
100
AcDbEntity
  8
1
  6
CONTINUOUS
 62
             3
100
AcDbLine
 10
446.72531931749791
 20
627.90539462953484
 11
446.08477105098791
 21
629.56448553859764
  0
LINE
  5
BC
100
AcDbEntity
  8
1
  6
CONTINUOUS
 62
             3
100
AcDbLine
 10
450.50647565320787
 20
618.11178120566183
 11
446.72531931749791
 21
627.90539462953484
  0
LINE
  5
BB
100
AcDbEntity
  8
1
  6
CONTINUOUS
 62
             3
100
AcDbLine
 10
453.74915414197687
 20
618.11178120566183
 11
450.50647565320787
 21
618.11178120566183
  0
LINE
  5
BA
100
AcDbEntity
  8
1
  6
CONTINUOUS
 62
             3
100
AcDbLine
 10
457.0010763195969
 20
631.38450847831996
 11
453.74915414197687
 21
618.11178120566183
  0
LINE
  5
B9
100
AcDbEntity
  8
1
  6
CONTINUOUS
 62
             3
100
AcDbLine
 10
454.90699924198287
 20
631.38450847831996
 11
457.0010763195969
 21
631.38450847831996
  0
LINE
  5
B8
100
AcDbEntity
  8
1
  6
CONTINUOUS
 62
             3
100
AcDbLine
 10
452.06156733662988
 20
619.770872114746
 11
454.90699924198287
 21
631.38450847831996
  0
LINE
  5
B7
100
AcDbEntity
  8
1
  6
CONTINUOUS
 62
             3
100
AcDbLine
 10
447.57772947035488
 20
631.38450847831996
 11
452.06156733662988
 21
619.770872114746
  0
LINE
  5
B6
100
AcDbEntity
  8
1
  6
CONTINUOUS
 62
             3
100
AcDbLine
 10
444.4366138540139
 20
631.38450847831996
 11
447.57772947035488
 21
631.38450847831996
  0
LINE
  5
B5
100
AcDbEntity
  8
1
  6
CONTINUOUS
 62
             3
100
AcDbLine
 10
441.18469167649891
 20
618.11178120566183
 11
444.4366138540139
 21
631.38450847831996
  0
LINE
  5
B4
100
AcDbEntity
  8
1
  6
CONTINUOUS
 62
             3
100
AcDbLine
 10
441.92372136089801
 20
631.38450847831996
 11
439.82964428333389
 21
631.38450847831996
  0
LINE
  5
B3
100
AcDbEntity
  8
1
  6
CONTINUOUS
 62
             3
100
AcDbLine
 10
439.82964428333389
 20
631.38450847831996
 11
436.57772210576888
 21
618.11178120566183
  0
LINE
  5
B2
100
AcDbEntity
  8
1
  6
CONTINUOUS
 62
             3
100
AcDbLine
 10
438.67179918332897
 20
618.11178120566183
 11
441.92372136089801
 21
631.38450847831996
  0
LINE
  5
B1
100
AcDbEntity
  8
1
  6
CONTINUOUS
 62
             3
100
AcDbLine
 10
436.57772210576888
 20
618.11178120566183
 11
438.67179918332897
 21
618.11178120566183
  0
LINE
  5
B0
100
AcDbEntity
  8
1
  6
CONTINUOUS
 62
             3
100
AcDbLine
 10
434.08450195052188
 20
626.73905393289078
 11
436.17857902804792
 21
626.73905393289078
  0
LINE
  5
AF
100
AcDbEntity
  8
1
  6
CONTINUOUS
 62
             3
100
AcDbLine
 10
433.05472659437191
 20
622.53602362984384
 11
432.51273956460489
 21
620.32390241779285
  0
LINE
  5
AE
100
AcDbEntity
  8
1
  6
CONTINUOUS
 62
             3
100
AcDbLine
 10
428.86657243897167
 20
622.53602362984384
 11
433.05472659437191
 21
622.53602362984384
  0
LINE
  5
AD
100
AcDbEntity
  8
1
  6
CONTINUOUS
 62
             3
100
AcDbLine
 10
429.40855946861888
 20
624.74814484203307
 11
428.86657243897167
 21
622.53602362984384
  0
LINE
  5
AC
100
AcDbEntity
  8
1
  6
CONTINUOUS
 62
             3
100
AcDbLine
 10
435.69079070142487
 20
624.74814484203307
 11
434.06482961265289
 21
618.11178120566183
  0
LINE
  5
AB
100
AcDbEntity
  8
1
  6
CONTINUOUS
 62
             3
100
AcDbLine
 10
435.69079070142487
 20
624.74814484203307
 11
429.40855946861888
 21
624.74814484203307
  0
LINE
  5
AA
100
AcDbEntity
  8
1
  6
CONTINUOUS
 62
             3
100
AcDbLine
 10
424.13643125427552
 20
620.32390241779285
 11
426.30437937260308
 21
629.17238726626874
  0
LINE
  5
A9
100
AcDbEntity
  8
1
  6
CONTINUOUS
 62
             3
100
AcDbLine
 10
426.30437937260308
 20
629.17238726626874
 11
434.68068768289987
 21
629.17238726626874
  0
LINE
  5
A8
100
AcDbEntity
  8
1
  6
CONTINUOUS
 62
             3
100
AcDbLine
 10
434.68068768289987
 20
629.17238726626874
 11
434.08450195052188
 21
626.73905393289078
  0
LINE
  5
A7
100
AcDbEntity
  8
1
  6
CONTINUOUS
 62
             3
100
AcDbLine
 10
432.51273956460489
 20
620.32390241779285
 11
424.13643125427552
 21
620.32390241779285
  0
LINE
  5
A6
100
AcDbEntity
  8
1
  6
CONTINUOUS
 62
             3
100
AcDbLine
 10
434.06482961265289
 20
618.11178120566183
 11
421.50036714704038
 21
618.11178120566183
  0
LINE
  5
A5
100
AcDbEntity
  8
1
  6
CONTINUOUS
 62
             3
100
AcDbLine
 10
437.31675179017492
 20
631.38450847831996
 11
436.17857902804792
 21
626.73905393289078
  0
LINE
  5
A4
100
AcDbEntity
  8
1
  6
CONTINUOUS
 62
             3
100
AcDbLine
 10
424.75228932458413
 20
631.38450847831996
 11
437.31675179017492
 21
631.38450847831996
  0
LINE
  5
A3
100
AcDbEntity
  8
1
  6
CONTINUOUS
 62
             3
100
AcDbLine
 10
421.50036714704038
 20
618.11178120566183
 11
424.75228932458413
 21
631.38450847831996
  0
LINE
  5
A2
100
AcDbEntity
  8
1
  6
CONTINUOUS
 62
             3
100
AcDbLine
 10
418.9874746540554
 20
618.11178120566183
 11
422.23939683146472
 21
631.38450847831996
  0
LINE
  5
A1
100
AcDbEntity
  8
1
  6
CONTINUOUS
 62
             3
100
AcDbLine
 10
416.8933975763357
 20
618.11178120566183
 11
418.9874746540554
 21
618.11178120566183
  0
LINE
  5
A0
100
AcDbEntity
  8
1
  6
CONTINUOUS
 62
             3
100
AcDbLine
 10
420.14531975390128
 20
631.38450847831996
 11
416.8933975763357
 21
618.11178120566183
  0
LINE
  5
9F
100
AcDbEntity
  8
1
  6
CONTINUOUS
 62
             3
100
AcDbLine
 10
422.23939683146472
 20
631.38450847831996
 11
420.14531975390128
 21
631.38450847831996
  0
LINE
  5
9E
100
AcDbEntity
  8
1
  6
CONTINUOUS
 62
             3
100
AcDbLine
 10
403.91011969529791
 20
618.11178120566183
 11
404.99409375440882
 21
622.53602362984384
  0
LINE
  5
9D
100
AcDbEntity
  8
1
  6
CONTINUOUS
 62
             3
100
AcDbLine
 10
401.81604261762192
 20
618.11178120566183
 11
403.91011969529791
 21
618.11178120566183
  0
LINE
  5
9C
100
AcDbEntity
  8
1
  6
CONTINUOUS
 62
             3
100
AcDbLine
 10
415.32822346931789
 20
621.97989581078173
 11
414.38050508320521
 21
618.11178120566183
  0
LINE
  5
9B
100
AcDbEntity
  8
1
  6
CONTINUOUS
 62
             3
100
AcDbLine
 10
406.62005484318428
 20
629.17238726626874
 11
405.53608078400072
 21
624.74814484203307
  0
LINE
  5
9A
100
AcDbEntity
  8
1
  6
CONTINUOUS
 62
             3
100
AcDbLine
 10
414.99636315370299
 20
629.17238726626874
 11
406.62005484318428
 21
629.17238726626874
  0
LINE
  5
99
100
AcDbEntity
  8
1
  6
CONTINUOUS
 62
             3
100
AcDbLine
 10
413.91238909438113
 20
624.74814484203307
 11
414.99636315370299
 21
629.17238726626874
  0
LINE
  5
98
100
AcDbEntity
  8
1
  6
CONTINUOUS
 62
             3
100
AcDbLine
 10
405.53608078400072
 20
624.74814484203307
 11
413.91238909438113
 21
624.74814484203307
  0
LINE
  5
97
100
AcDbEntity
  8
1
  6
CONTINUOUS
 62
             3
100
AcDbLine
 10
413.37040206493839
 20
622.53602362984384
 11
404.99409375440882
 21
622.53602362984384
  0
LINE
  5
96
100
AcDbEntity
  8
1
  6
CONTINUOUS
 62
             3
100
AcDbLine
 10
412.28642800556548
 20
618.11178120566183
 11
413.37040206493839
 21
622.53602362984384
  0
LINE
  5
95
100
AcDbEntity
  8
1
  6
CONTINUOUS
 62
             3
100
AcDbLine
 10
414.38050508320521
 20
618.11178120566183
 11
412.28642800556548
 21
618.11178120566183
  0
LINE
  5
94
100
AcDbEntity
  8
1
  6
CONTINUOUS
 62
             3
100
AcDbLine
 10
417.63242726073798
 20
631.38450847831996
 11
415.76490315088449
 21
623.76220485833164
  0
LINE
  5
93
100
AcDbEntity
  8
1
  6
CONTINUOUS
 62
             3
100
AcDbLine
 10
405.06796479515828
 20
631.38450847831996
 11
417.63242726073798
 21
631.38450847831996
  0
LINE
  5
92
100
AcDbEntity
  8
1
  6
CONTINUOUS
 62
             3
100
AcDbLine
 10
405.06796479515828
 20
631.38450847831996
 11
401.81604261762192
 21
618.11178120566183
  0
LINE
  5
91
100
AcDbEntity
  8
1
  6
CONTINUOUS
 62
             3
100
AcDbLine
 10
389.37475176613242
 20
620.32390241779285
 11
391.54269988447408
 21
629.17238726626874
  0
LINE
  5
90
100
AcDbEntity
  8
1
  6
CONTINUOUS
 62
             3
100
AcDbLine
 10
391.54269988447408
 20
629.17238726626874
 11
399.91900819496368
 21
629.17238726626874
  0
LINE
  5
8F
100
AcDbEntity
  8
1
  6
CONTINUOUS
 62
             3
100
AcDbLine
 10
399.91900819496368
 20
629.17238726626874
 11
397.75106007648719
 21
620.32390241779285
  0
LINE
  5
8E
100
AcDbEntity
  8
1
  6
CONTINUOUS
 62
             3
100
AcDbLine
 10
397.75106007648719
 20
620.32390241779285
 11
389.37475176613242
 21
620.32390241779285
  0
LINE
  5
8D
100
AcDbEntity
  8
1
  6
CONTINUOUS
 62
             3
100
AcDbLine
 10
399.30315012449142
 20
618.11178120566183
 11
386.73868765896623
 21
618.11178120566183
  0
LINE
  5
8C
100
AcDbEntity
  8
1
  6
CONTINUOUS
 62
             3
100
AcDbLine
 10
402.55507230216608
 20
631.38450847831996
 11
399.30315012449142
 21
618.11178120566183
  0
LINE
  5
8B
100
AcDbEntity
  8
1
  6
CONTINUOUS
 62
             3
100
AcDbLine
 10
389.99060983644807
 20
631.38450847831996
 11
402.55507230216608
 21
631.38450847831996
  0
LINE
  5
8A
100
AcDbEntity
  8
1
  6
CONTINUOUS
 62
             3
100
AcDbLine
 10
386.73868765896623
 20
618.11178120566183
 11
389.99060983644807
 21
631.38450847831996
  0
LINE
  5
89
100
AcDbEntity
  8
1
  6
CONTINUOUS
 62
             3
100
AcDbLine
 10
530.32950315220683
 20
575.0
 11
477.73870173339708
 21
575.0
  0
LINE
  5
88
100
AcDbEntity
  8
1
  6
CONTINUOUS
 62
             3
100
AcDbLine
 10
527.92883078568798
 20
581.19393939390966
 11
485.11968123351483
 21
581.19393939390966
  0
LINE
  5
87
100
AcDbEntity
  8
1
  6
CONTINUOUS
 62
             3
100
AcDbLine
 10
527.92883078568798
 20
581.19393939390966
 11
530.32950315220683
 21
575.0
  0
LINE
  5
86
100
AcDbEntity
  8
1
  6
CONTINUOUS
 62
             3
100
AcDbLine
 10
520.68683070890597
 20
599.87891706682376
 11
517.90697758494889
 21
607.05117514507901
  0
LINE
  5
85
100
AcDbEntity
  8
1
  6
CONTINUOUS
 62
             3
100
AcDbLine
 10
526.28405688919202
 20
607.05117514507901
 11
520.68683070890597
 21
599.87891706682376
  0
LINE
  5
84
100
AcDbEntity
  8
1
  6
CONTINUOUS
 62
             3
100
AcDbLine
 10
530.32950315225003
 20
607.05117514507901
 11
526.28405688919202
 21
607.05117514507901
  0
LINE
  5
83
100
AcDbEntity
  8
1
  6
CONTINUOUS
 62
             3
100
AcDbLine
 10
522.02927310716791
 20
596.41530121860296
 11
530.32950315225003
 21
607.05117514507901
  0
LINE
  5
82
100
AcDbEntity
  8
1
  6
CONTINUOUS
 62
             3
100
AcDbLine
 10
526.89997120017188
 20
583.8484848484768
 11
522.02927310716791
 21
596.41530121860296
  0
LINE
  5
81
100
AcDbEntity
  8
1
  6
CONTINUOUS
 62
             3
100
AcDbLine
 10
522.85452493712398
 20
583.8484848484768
 11
526.89997120017188
 21
583.8484848484768
  0
LINE
  5
80
100
AcDbEntity
  8
1
  6
CONTINUOUS
 62
             3
100
AcDbLine
 10
519.32626924243982
 20
592.95168537050176
 11
522.85452493712398
 21
583.8484848484768
  0
LINE
  5
7F
100
AcDbEntity
  8
1
  6
CONTINUOUS
 62
             3
100
AcDbLine
 10
512.22213666233802
 20
583.8484848484768
 11
519.32626924243982
 21
592.95168537050176
  0
LINE
  5
7E
100
AcDbEntity
  8
1
  6
CONTINUOUS
 62
             3
100
AcDbLine
 10
508.17669039934083
 20
583.8484848484768
 11
512.22213666233802
 21
583.8484848484768
  0
LINE
  5
7D
100
AcDbEntity
  8
1
  6
CONTINUOUS
 62
             3
100
AcDbLine
 10
517.98382684413082
 20
596.41530121866072
 11
508.17669039934083
 21
583.8484848484768
  0
LINE
  5
7C
100
AcDbEntity
  8
1
  6
CONTINUOUS
 62
             3
100
AcDbLine
 10
513.86153132193408
 20
607.05117514507901
 11
517.98382684413082
 21
596.41530121866072
  0
LINE
  5
7B
100
AcDbEntity
  8
1
  6
CONTINUOUS
 62
             3
100
AcDbLine
 10
517.90697758494889
 20
607.05117514507901
 11
513.86153132193408
 21
607.05117514507901
  0
LINE
  5
7A
100
AcDbEntity
  8
1
  6
CONTINUOUS
 62
             3
100
AcDbLine
 10
500.87825344088901
 20
607.05117514507901
 11
495.64306074696708
 21
607.05117514507901
  0
LINE
  5
79
100
AcDbEntity
  8
1
  6
CONTINUOUS
 62
             3
100
AcDbLine
 10
496.27738657753798
 20
588.27272727279706
 11
500.87825344088901
 21
607.05117514507901
  0
LINE
  5
78
100
AcDbEntity
  8
1
  6
CONTINUOUS
 62
             3
100
AcDbLine
 10
501.51257927148981
 20
588.27272727279706
 11
496.27738657753798
 21
588.27272727279706
  0
LINE
  5
77
100
AcDbEntity
  8
1
  6
CONTINUOUS
 62
             3
100
AcDbLine
 10
506.11344613488518
 20
607.05117514507901
 11
501.51257927148981
 21
588.27272727279706
  0
LINE
  5
76
100
AcDbEntity
  8
1
  6
CONTINUOUS
 62
             3
100
AcDbLine
 10
511.34863882880791
 20
607.05117514507901
 11
506.11344613488518
 21
607.05117514507901
  0
LINE
  5
75
100
AcDbEntity
  8
1
  6
CONTINUOUS
 62
             3
100
AcDbLine
 10
505.66379790619999
 20
583.8484848484768
 11
511.34863882880791
 21
607.05117514507901
  0
LINE
  5
74
100
AcDbEntity
  8
1
  6
CONTINUOUS
 62
             3
100
AcDbLine
 10
489.95821982427901
 20
583.8484848484768
 11
505.66379790619999
 21
583.8484848484768
  0
LINE
  5
73
100
AcDbEntity
  8
1
  6
CONTINUOUS
 62
             3
100
AcDbLine
 10
495.64306074696708
 20
607.05117514507901
 11
489.95821982427901
 21
583.8484848484768
  0
LINE
  5
72
100
AcDbEntity
  8
1
  6
CONTINUOUS
 62
             3
100
AcDbLine
 10
488.30142592233801
 20
618.11178120566183
 11
477.73870173339708
 21
575.0
  0
LINE
  5
71
100
AcDbEntity
  8
1
  6
CONTINUOUS
 62
             3
100
AcDbLine
 10
494.16484173960589
 20
618.11178120566183
 11
488.30142592233801
 21
618.11178120566183
  0
LINE
  5
70
100
AcDbEntity
  8
1
  6
CONTINUOUS
 62
             3
100
AcDbLine
 10
485.11968123351483
 20
581.19393939390966
 11
494.16484173960589
 21
618.11178120566183
  0
LINE
  5
6F
100
AcDbEntity
  8
1
  6
CONTINUOUS
 62
             3
100
AcDbLine
 10
350.0
 20
575.0
 11
357.85278904105508
 21
607.05117514507901
  0
LINE
  5
6E
100
AcDbEntity
  8
1
  6
CONTINUOUS
 62
             3
100
AcDbLine
 10
357.85278904105508
 20
607.05117514507901
 11
364.13502027375222
 21
607.05117514507901
  0
LINE
  5
6D
100
AcDbEntity
  8
1
  6
CONTINUOUS
 62
             3
100
AcDbLine
 10
364.13502027375222
 20
607.05117514507901
 11
357.36620529206272
 21
579.42424242418201
  0
LINE
  5
6C
100
AcDbEntity
  8
1
  6
CONTINUOUS
 62
             3
100
AcDbLine
 10
357.36620529206272
 20
579.42424242418201
 11
362.60139798594167
 21
579.42424242418201
  0
LINE
  5
6B
100
AcDbEntity
  8
1
  6
CONTINUOUS
 62
             3
100
AcDbLine
 10
362.60139798594167
 20
579.42424242418201
 11
370.7251805418237
 21
612.58147817540475
  0
LINE
  5
6A
100
AcDbEntity
  8
1
  6
CONTINUOUS
 62
             3
100
AcDbLine
 10
370.7251805418237
 20
612.58147817540475
 11
353.03408469729038
 21
612.58147817540475
  0
LINE
  5
69
100
AcDbEntity
  8
1
  6
CONTINUOUS
 62
             3
100
AcDbLine
 10
353.03408469729038
 20
612.58147817540475
 11
354.38905227127538
 21
618.11178120566183
  0
LINE
  5
68
100
AcDbEntity
  8
1
  6
CONTINUOUS
 62
             3
100
AcDbLine
 10
354.38905227127538
 20
618.11178120566183
 11
378.36237934856757
 21
618.11178120566183
  0
LINE
  5
67
100
AcDbEntity
  8
1
  6
CONTINUOUS
 62
             3
100
AcDbLine
 10
378.36237934856757
 20
618.11178120566183
 11
367.79965515964801
 21
575.0
  0
LINE
  5
66
100
AcDbEntity
  8
1
  6
CONTINUOUS
 62
             3
100
AcDbLine
 10
367.79965515964801
 20
575.0
 11
350.0
 21
575.0
  0
LINE
  5
65
100
AcDbEntity
  8
1
  6
CONTINUOUS
 62
             3
100
AcDbLine
 10
371.98780931477449
 20
575.0
 11
379.84059835576772
 21
607.05117514507901
  0
LINE
  5
64
100
AcDbEntity
  8
1
  6
CONTINUOUS
 62
             3
100
AcDbLine
 10
379.84059835576772
 20
607.05117514507901
 11
386.12282958857759
 21
607.05117514507901
  0
LINE
  5
63
100
AcDbEntity
  8
1
  6
CONTINUOUS
 62
             3
100
AcDbLine
 10
386.12282958857759
 20
607.05117514507901
 11
379.35401460678258
 21
579.42424242418201
  0
LINE
  5
62
100
AcDbEntity
  8
1
  6
CONTINUOUS
 62
             3
100
AcDbLine
 10
379.35401460678258
 20
579.42424242418201
 11
384.58920730076733
 21
579.42424242418201
  0
LINE
  5
61
100
AcDbEntity
  8
1
  6
CONTINUOUS
 62
             3
100
AcDbLine
 10
384.58920730076733
 20
579.42424242418201
 11
391.35802228257307
 21
607.05117514507901
  0
LINE
  5
60
100
AcDbEntity
  8
1
  6
CONTINUOUS
 62
             3
100
AcDbLine
 10
389.78746447436419
 20
575.0
 11
371.98780931477449
 21
575.0
  0
LINE
  5
5F
100
AcDbEntity
  8
1
  6
CONTINUOUS
 62
             3
100
AcDbLine
 10
391.35802228257307
 20
607.05117514507901
 11
397.6402535153793
 21
607.05117514507901
  0
LINE
  5
5E
100
AcDbEntity
  8
1
  6
CONTINUOUS
 62
             3
100
AcDbLine
 10
397.6402535153793
 20
607.05117514507901
 11
389.78746447436419
 21
575.0
  0
LINE
  5
5D
100
AcDbEntity
  8
1
  6
CONTINUOUS
 62
             3
100
AcDbLine
 10
418.58102429131412
 20
607.05117514507901
 11
401.82840767054222
 21
607.05117514507901
  0
LINE
  5
5C
100
AcDbEntity
  8
1
  6
CONTINUOUS
 62
             3
100
AcDbLine
 10
401.82840767054222
 20
607.05117514507901
 11
397.22754080715077
 21
588.27272727279706
  0
LINE
  5
5B
100
AcDbEntity
  8
1
  6
CONTINUOUS
 62
             3
100
AcDbLine
 10
397.22754080715077
 20
588.27272727279706
 11
407.69792619511662
 21
588.27272727279706
  0
LINE
  5
5A
100
AcDbEntity
  8
1
  6
CONTINUOUS
 62
             3
100
AcDbLine
 10
407.69792619511662
 20
588.27272727279706
 11
405.52997807669823
 21
579.42424242418201
  0
LINE
  5
59
100
AcDbEntity
  8
1
  6
CONTINUOUS
 62
             3
100
AcDbLine
 10
405.52997807669823
 20
579.42424242418201
 11
395.05959268878718
 21
579.42424242418201
  0
LINE
  5
58
100
AcDbEntity
  8
1
  6
CONTINUOUS
 62
             3
100
AcDbLine
 10
395.05959268878718
 20
579.42424242418201
 11
393.97561862947992
 21
575.0
  0
LINE
  5
57
100
AcDbEntity
  8
1
  6
CONTINUOUS
 62
             3
100
AcDbLine
 10
393.97561862947992
 20
575.0
 11
410.72823525030248
 21
575.0
  0
LINE
  5
56
100
AcDbEntity
  8
1
  6
CONTINUOUS
 62
             3
100
AcDbLine
 10
410.72823525030248
 20
575.0
 11
415.0641314872264
 21
592.69696969695292
  0
LINE
  5
55
100
AcDbEntity
  8
1
  6
CONTINUOUS
 62
             3
100
AcDbLine
 10
415.0641314872264
 20
592.69696969695292
 11
404.59374609916267
 21
592.69696969695292
  0
LINE
  5
54
100
AcDbEntity
  8
1
  6
CONTINUOUS
 62
             3
100
AcDbLine
 10
404.59374609916267
 20
592.69696969695292
 11
407.02666484417568
 21
602.62693272083879
  0
LINE
  5
53
100
AcDbEntity
  8
1
  6
CONTINUOUS
 62
             3
100
AcDbLine
 10
407.02666484417568
 20
602.62693272083879
 11
417.49705023215557
 21
602.62693272083879
  0
LINE
  5
52
100
AcDbEntity
  8
1
  6
CONTINUOUS
 62
             3
100
AcDbLine
 10
417.49705023215557
 20
602.62693272083879
 11
418.58102429131412
 21
607.05117514507901
  0
LINE
  5
51
100
AcDbEntity
  8
1
  6
CONTINUOUS
 62
             3
100
AcDbLine
 10
436.81185991932188
 20
595.99056908441298
 11
439.5217950672519
 21
607.05117514507901
  0
LINE
  5
50
100
AcDbEntity
  8
1
  6
CONTINUOUS
 62
             3
100
AcDbLine
 10
439.5217950672519
 20
607.05117514507901
 11
422.76917844653138
 21
607.05117514507901
  0
LINE
  5
4F
100
AcDbEntity
  8
1
  6
CONTINUOUS
 62
             3
100
AcDbLine
 10
422.76917844653138
 20
607.05117514507901
 11
414.91638940553821
 21
575.0
  0
LINE
  5
4E
100
AcDbEntity
  8
1
  6
CONTINUOUS
 62
             3
100
AcDbLine
 10
414.91638940553821
 20
575.0
 11
431.66900602629192
 21
575.0
  0
LINE
  5
4D
100
AcDbEntity
  8
1
  6
CONTINUOUS
 62
             3
100
AcDbLine
 10
431.66900602629192
 20
575.0
 11
434.37894117426612
 21
586.06060606060805
  0
LINE
  5
4C
100
AcDbEntity
  8
1
  6
CONTINUOUS
 62
             3
100
AcDbLine
 10
434.37894117426612
 20
586.06060606060805
 11
428.09670994147791
 21
586.06060606060805
  0
LINE
  5
4B
100
AcDbEntity
  8
1
  6
CONTINUOUS
 62
             3
100
AcDbLine
 10
428.09670994147791
 20
586.06060606060805
 11
426.47074885269092
 21
579.42424242418201
  0
LINE
  5
4A
100
AcDbEntity
  8
1
  6
CONTINUOUS
 62
             3
100
AcDbLine
 10
426.47074885269092
 20
579.42424242418201
 11
422.28259469748809
 21
579.42424242418201
  0
LINE
  5
49
100
AcDbEntity
  8
1
  6
CONTINUOUS
 62
             3
100
AcDbLine
 10
422.28259469748809
 20
579.42424242418201
 11
427.96743562011778
 21
602.62693272083879
  0
LINE
  5
48
100
AcDbEntity
  8
1
  6
CONTINUOUS
 62
             3
100
AcDbLine
 10
427.96743562011778
 20
602.62693272083879
 11
432.15558977530992
 21
602.62693272083879
  0
LINE
  5
47
100
AcDbEntity
  8
1
  6
CONTINUOUS
 62
             3
100
AcDbLine
 10
432.15558977530992
 20
602.62693272083879
 11
430.52962868651588
 21
595.99056908441298
  0
LINE
  5
46
100
AcDbEntity
  8
1
  6
CONTINUOUS
 62
             3
100
AcDbLine
 10
430.52962868651588
 20
595.99056908441298
 11
436.81185991932188
 21
595.99056908441298
  0
LINE
  5
45
100
AcDbEntity
  8
1
  6
CONTINUOUS
 62
             3
100
AcDbLine
 10
435.85716018147292
 20
575.0
 11
442.1393914142609
 21
575.0
  0
LINE
  5
44
100
AcDbEntity
  8
1
  6
CONTINUOUS
 62
             3
100
AcDbLine
 10
452.60977680233589
 20
575.0
 11
460.46256584335072
 21
607.05117514507901
  0
LINE
  5
43
100
AcDbEntity
  8
1
  6
CONTINUOUS
 62
             3
100
AcDbLine
 10
446.32754556943888
 20
575.0
 11
449.71195306033388
 21
588.81346636034095
  0
LINE
  5
42
100
AcDbEntity
  8
1
  6
CONTINUOUS
 62
             3
100
AcDbLine
 10
442.1393914142609
 20
575.0
 11
445.5237989051459
 21
588.81346636034095
  0
LINE
  5
41
100
AcDbEntity
  8
1
  6
CONTINUOUS
 62
             3
100
AcDbLine
 10
443.70994922246592
 20
607.05117514507901
 11
435.85716018147292
 21
575.0
  0
LINE
  5
40
100
AcDbEntity
  8
1
  6
CONTINUOUS
 62
             3
100
AcDbLine
 10
460.46256584335072
 20
607.05117514507901
 11
454.1803346104349
 21
607.05117514507901
  0
LINE
  5
3F
100
AcDbEntity
  8
1
  6
CONTINUOUS
 62
             3
100
AcDbLine
 10
456.79793095746197
 20
575.0
 11
473.55054757827008
 21
575.0
  0
LINE
  5
3E
100
AcDbEntity
  8
1
  6
CONTINUOUS
 62
             3
100
AcDbLine
 10
468.35229040456773
 20
579.42424242418201
 11
464.16413624946699
 21
579.42424242418201
  0
LINE
  5
3D
100
AcDbEntity
  8
1
  6
CONTINUOUS
 62
             3
100
AcDbLine
 10
464.65071999845912
 20
607.05117514507901
 11
456.79793095746197
 21
575.0
  0
LINE
  5
3C
100
AcDbEntity
  8
1
  6
CONTINUOUS
 62
             3
100
AcDbLine
 10
464.16413624946699
 20
579.42424242418201
 11
469.84897717204183
 21
602.62693272083879
  0
LINE
  5
3B
100
AcDbEntity
  8
1
  6
CONTINUOUS
 62
             3
100
AcDbLine
 10
481.40333661928889
 20
607.05117514507901
 11
464.65071999845912
 21
607.05117514507901
  0
LINE
  5
3A
100
AcDbEntity
  8
1
  6
CONTINUOUS
 62
             3
100
AcDbLine
 10
469.84897717204183
 20
602.62693272083879
 11
474.03713132729212
 21
602.62693272083879
  0
LINE
  5
39
100
AcDbEntity
  8
1
  6
CONTINUOUS
 62
             3
100
AcDbLine
 10
474.03713132729212
 20
602.62693272083879
 11
468.35229040456773
 21
579.42424242418201
  0
LINE
  5
38
100
AcDbEntity
  8
1
  6
CONTINUOUS
 62
             3
100
AcDbLine
 10
481.40333661928889
 20
607.05117514507901
 11
473.55054757827008
 21
575.0
  0
LINE
  5
37
100
AcDbEntity
  8
1
  6
CONTINUOUS
 62
             3
100
AcDbLine
 10
449.99218045533092
 20
607.05117514507901
 11
443.70994922246592
 21
607.05117514507901
  0
LINE
  5
36
100
AcDbEntity
  8
1
  6
CONTINUOUS
 62
             3
100
AcDbLine
 10
446.32754556943888
 20
575.0
 11
452.60977680233589
 21
575.0
  0
LINE
  5
35
100
AcDbEntity
  8
1
  6
CONTINUOUS
 62
             3
100
AcDbLine
 10
445.5237989051459
 20
588.81346636034095
 11
449.71195306033388
 21
588.81346636034095
  0
LINE
  5
34
100
AcDbEntity
  8
1
  6
CONTINUOUS
 62
             3
100
AcDbLine
 10
446.6077729643149
 20
593.23770878452706
 11
450.79592711955388
 21
593.23770878452706
  0
LINE
  5
33
100
AcDbEntity
  8
1
  6
CONTINUOUS
 62
             3
100
AcDbLine
 10
446.6077729643149
 20
593.23770878452706
 11
449.99218045533092
 21
607.05117514507901
  0
LINE
  5
32
100
AcDbEntity
  8
1
  6
CONTINUOUS
 62
             3
100
AcDbLine
 10
450.79592711955388
 20
593.23770878452706
 11
454.1803346104349
 21
607.05117514507901
  0
LINE
  5
31
100
AcDbEntity
  8
1
  6
CONTINUOUS
 62
             3
100
AcDbLine
 10
415.76490315088449
 20
623.76220485833164
 11
415.0328203819372
 21
622.97844787236295
  0
LINE
  5
30
100
AcDbEntity
  8
1
  6
CONTINUOUS
 62
             3
100
AcDbLine
 10
415.32822346931789
 20
621.97989581078173
 11
415.0328203819372
 21
622.97844787236295
  0
ENDBLK
  5
E4
100
AcDbEntity
  8
0
100
AcDbBlockEnd
  0
BLOCK
  5
2B
100
AcDbEntity
  8
0
100
AcDbBlockBegin
  2
WANNE_PICCOLO_CITY_669
 70
             0
 10
0.0
 20
0.0
 30
0.0
  3
WANNE_PICCOLO_CITY_669
  1

  0
SPLINE
  5
F5
100
AcDbEntity
  8
0
  6
CONTINUOUS
 62
             7
100
AcDbSpline
210
0.0
220
0.0
230
1.0
 70
             0
 71
             3
 72
             8
 73
             4
 74
             3
 42
0.00000000001
 43
0.00000000001
 44
0.00000000001
 40
0.0
 40
0.0
 40
0.0
 40
0.0
 40
477.63461417416943
 40
477.63461417416943
 40
477.63461417416943
 40
477.63461417416943
 10
499.76311131506799
 20
0.000003897238912
 30
0.0
 10
647.84172599121098
 20
57.181289146911013
 30
0.0
 10
783.674946873924
 20
142.0440373116719
 30
0.0
 10
900.00000291169408
 20
250.050781718352
 30
0.0
 11
499.76311131506804
 21
0.0000038972389311
 31
0.0
 11
711.78914160277077
 21
105.96584562391745
 31
0.0
 11
900.00000291169408
 21
250.050781718352
 31
0.0
  0
SPLINE
  5
F4
100
AcDbEntity
  8
0
  6
CONTINUOUS
 62
             7
100
AcDbSpline
210
0.0
220
0.0
230
1.0
 70
             0
 71
             4
 72
            10
 73
             5
 74
             3
 42
0.00000000001
 43
0.00000000001
 44
0.00000000001
 40
0.0
 40
0.0
 40
0.0
 40
0.0
 40
0.0
 40
62.404624049246088
 40
62.404624049246088
 40
62.404624049246088
 40
62.404624049246088
 40
62.404624049246088
 10
850.0000000002201
 20
497.52538974433611
 30
0.0
 10
854.28678214276806
 20
482.56503447371392
 30
0.0
 10
857.23611388610311
 20
467.20474919718208
 30
0.0
 10
858.84872272537291
 20
451.65911005050913
 30
0.0
 10
859.17525363408208
 20
436.09025371202102
 30
0.0
 11
850.0000000002201
 21
497.52538974433611
 31
0.0
 11
856.57087227646775
 21
467.10879479602136
 31
0.0
 11
859.17525363408208
 21
436.09025371202102
 31
0.0
  0
SPLINE
  5
F3
100
AcDbEntity
  8
0
  6
CONTINUOUS
 62
             7
100
AcDbSpline
210
0.0
220
0.0
230
1.0
 70
             1
 71
             3
 72
            91
 73
            87
 74
           167
 42
0.00000000001
 43
0.00000000001
 44
0.00000000001
 40
-6.4461571252272734
 40
0.0
 40
0.0
 40
9.7144139668178209
 40
19.451175925476999
 40
44.020941473561535
 40
59.018851225797491
 40
89.412456235239745
 40
104.95442282516709
 40
136.67701576096405
 40
152.99110122584656
 40
186.39728683882959
 40
203.6085924802984
 40
238.84789090390288
 40
256.98161977174215
 40
294.01652185936882
 40
313.01195018406082
 40
351.64989550494681
 40
371.37763377120177
 40
411.30581731645884
 40
431.58494152023849
 40
472.40369201637935
 40
493.01782356742069
 40
534.27181685628227
 40
554.98423890602453
 40
596.19208310848421
 40
616.76026894368681
 40
657.44330298685634
 40
677.63327540571686
 40
717.34445014632399
 40
736.94538953787526
 40
775.29910087629082
 40
794.13861952188631
 40
830.84231195037262
 40
848.80274411407993
 40
883.69068484366119
 40
900.72636450669734
 40
933.79440139775124
 40
949.94866983753377
 40
981.3846737154405
 40
996.80250390385243
 40
1026.9998161948524
 40
1041.927597831791
 40
1071.4619888948134
 40
1086.2240375089668
 40
1115.9047834954204
 40
1130.9822599429299
 40
1161.5047974795154
 40
1177.1012078452745
 40
1208.9199323788664
 40
1225.2807086063835
 40
1258.7826892964763
 40
1276.0476425560878
 40
1311.4075431866418
 40
1329.6121578601503
 40
1366.8084889514441
 40
1385.897785057791
 40
1424.7454755781323
 40
1444.5918937810131
 40
1484.7785764666019
 40
1505.1999119691918
 40
1546.3209049986324
 40
1567.0971616136708
 40
1608.6881698582658
 40
1629.5773806403674
 40
1671.1454327694114
 40
1691.898836140268
 40
1732.9523422479481
 40
1753.3293572291852
 40
1793.4082089540018
 40
1813.1916522613933
 40
1851.8982874111016
 40
1870.9102752409099
 40
1907.9425790927935
 40
1926.0614885296641
 40
1961.2479747866864
 40
1978.4264490844862
 40
2011.7625026086284
 40
2028.0451917332045
 40
2059.724801441243
 40
2075.261496704471
 40
2105.6910489728161
 40
2120.7362400697962
 40
2142.0839453608346
 40
2148.5366221282698
 40
2154.982779253497
 40
2154.982779253497
 40
2164.6971932203151
 40
2174.433955178974
 40
2199.0037207270584
 40
2214.0016304792944
 10
825.95361304816493
 20
490.68643556638898
 30
0.0
 10
828.61107038215505
 20
481.34257345071501
 30
0.0
 10
830.63548228692503
 20
471.81858847175698
 30
0.0
 10
834.111815385716
 20
447.49599635508298
 30
0.0
 10
834.72817061330602
 20
432.510756845164
 30
0.0
 10
832.95333128993593
 20
402.16901709863311
 30
0.0
 10
830.56106951994502
 20
386.81226584368801
 30
0.0
 10
822.75991684179394
 20
356.06385256003301
 30
0.0
 10
817.35018828304192
 20
340.67280901269311
 30
0.0
 10
803.57929805114804
 20
310.23704354786202
 30
0.0
 10
795.21788589513699
 20
295.19324653243513
 30
0.0
 10
775.70019631579999
 20
265.85269529575089
 30
0.0
 10
764.54411498866807
 20
251.556752791854
 30
0.0
 10
739.68507700617101
 20
224.10475462733299
 30
0.0
 10
725.9825257115881
 20
210.94928484256911
 30
0.0
 10
696.36007423987007
 20
186.1420039068139
 30
0.0
 10
680.44064310948397
 20
174.49059328033809
 30
0.0
 10
646.78190961843893
 20
153.01154532651711
 30
0.0
 10
629.0430841464231
 20
143.18418813622
 30
0.0
 10
592.19664043957209
 20
125.61973601769211
 30
0.0
 10
573.08949626944695
 20
117.8828463800089
 30
0.0
 10
533.99681036675702
 20
104.7050669315941
 30
0.0
 10
514.01174535084192
 20
99.264331367693103
 30
0.0
 10
473.67869611995138
 20
90.818529833632056
 30
0.0
 10
453.331201965947
 20
87.813575557077002
 30
0.0
 10
412.79939957479559
 20
84.308970888595923
 30
0.0
 10
392.61560903014112
 20
83.809385536663967
 30
0.0
 10
352.93288941877017
 20
85.312436941090937
 30
0.0
 10
333.43452325259477
 20
87.315070677203039
 30
0.0
 10
295.62375944473661
 20
93.74572489717707
 30
0.0
 10
277.3119823547413
 20
98.173623112365021
 30
0.0
 10
242.33721436547239
 20
109.3058574784629
 30
0.0
 10
225.6748772368874
 20
116.0098596354219
 30
0.0
 10
194.40423624706909
 20
131.47968253152089
 30
0.0
 10
179.7964907312753
 20
140.24484953092201
 30
0.0
 10
152.96387161534861
 20
159.57114289534411
 30
0.0
 10
140.73916975275461
 20
170.13130639764111
 30
0.0
 10
118.91283469619979
 20
192.75504255705511
 30
0.0
 10
109.310669029107
 20
204.8177081919971
 30
0.0
 10
92.885345052963203
 20
230.15713205835391
 30
0.0
 10
86.061087736699847
 20
243.43373466148799
 30
0.0
 10
75.289044258908689
 20
270.93361347533209
 30
0.0
 10
71.34046234368725
 20
285.15777531866797
 30
0.0
 10
66.3701177975463
 20
314.41939450498489
 30
0.0
 10
65.373641774935095
 20
329.46390618072792
 30
0.0
 10
66.434534683486163
 20
359.96800105188998
 30
0.0
 10
68.492986658446171
 20
375.42797491227998
 30
0.0
 10
75.679940143498243
 20
406.42440907087803
 30
0.0
 10
80.809373496879743
 20
421.96030016988198
 30
0.0
 10
94.080850865892899
 20
452.72148673027209
 30
0.0
 10
102.2232180032352
 20
467.94582476045588
 30
0.0
 10
121.36955485399091
 20
497.67359557832992
 30
0.0
 10
132.37335308557249
 20
512.17616155437599
 30
0.0
 10
156.9964248871083
 20
540.05574874123295
 30
0.0
 10
170.61528706399349
 20
553.43213909299811
 30
0.0
 10
200.13692575954971
 20
578.68319664497494
 30
0.0
 10
216.0392153329349
 20
590.55743353868093
 30
0.0
 10
249.72472269272291
 20
612.47217878442507
 30
0.0
 10
267.50744301960913
 20
622.51238801954992
 30
0.0
 10
304.49435626777722
 20
640.48192658067592
 30
0.0
 10
323.6980546724335
 20
648.41103791278192
 30
0.0
 10
363.02590590622282
 20
661.94366826075611
 30
0.0
 10
383.14956194503878
 20
667.54702392771992
 30
0.0
 10
423.78958918249918
 20
676.28150410351691
 30
0.0
 10
444.30545018061372
 20
679.41251016858996
 30
0.0
 10
485.190484589785
 20
683.12792738529606
 30
0.0
 10
505.55911941754113
 20
683.71226872311308
 30
0.0
 10
545.61430408005094
 20
682.33512049867591
 30
0.0
 10
565.30026838330605
 20
680.37363163871896
 30
0.0
 10
603.47550750018604
 20
673.98186169748396
 30
0.0
 10
621.96413626301091
 20
669.55170507370394
 30
0.0
 10
657.26933149506908
 20
658.37428505813295
 30
0.0
 10
674.08521616982489
 20
651.62736711088996
 30
0.0
 10
705.62887108910195
 20
636.03613080810806
 30
0.0
 10
720.35605878641604
 20
627.192493449631
 30
0.0
 10
747.3852440788321
 20
607.68055846120092
 30
0.0
 10
759.6870665948361
 20
597.013266025333
 30
0.0
 10
781.62014498305189
 20
574.15418153644691
 30
0.0
 10
791.25196771926494
 20
561.96332879840702
 30
0.0
 10
807.68656546516695
 20
536.35353285657402
 30
0.0
 10
814.49049100774096
 20
522.93472618996793
 30
0.0
 10
822.14809694369296
 20
503.00771957776692
 30
0.0
 10
824.1902140837949
 20
496.88670699396198
 30
0.0
 10
825.95361304816493
 20
490.68643556638898
 30
0.0
 10
825.95361304816493
 20
490.68643556638898
 30
0.0
 10
828.61107038215505
 20
481.34257345071501
 30
0.0
 10
830.63548228692503
 20
471.81858847175698
 30
0.0
 11
828.16829260220413
 21
482.63425441733915
 31
0.0
 11
829.23494753107366
 21
478.25275160600046
 31
0.0
 11
830.02110992629764
 21
474.26235175598487
 31
0.0
 11
832.12444395588375
 21
460.87810558851885
 31
0.0
 11
833.84539999347589
 21
447.03253753541657
 31
0.0
 11
834.32699643678041
 21
440.64966812584998
 31
0.0
 11
834.40453666866108
 21
434.40226519045041
 31
0.0
 11
833.74794853071035
 21
417.50813327718157
 31
0.0
 11
832.48700483821312
 21
400.8107422268518
 31
0.0
 11
831.71786155205302
 21
394.63674071289188
 31
0.0
 11
830.58986662608447
 21
388.55092030313909
 31
0.0
 11
826.61065992042359
 21
371.63550015910238
 31
0.0
 11
822.04823476553702
 21
354.78447082347952
 31
0.0
 11
820.05672069619186
 21
348.55365948074592
 31
0.0
 11
817.73972454895465
 21
342.48032606379945
 31
0.0
 11
810.46477970986132
 21
325.68362762145722
 31
0.0
 11
802.6362563010839
 21
309.03515965670886
 31
0.0
 11
799.44066216402484
 21
302.91045720747098
 31
0.0
 11
795.96192016966017
 21
296.99403558269773
 31
0.0
 11
785.50176820374804
 21
280.75209950454075
 31
0.0
 11
774.53278479174173
 21
264.73463412422331
 31
0.0
 11
770.19306419844179
 21
258.88706811646949
 31
0.0
 11
765.6140777283274
 21
253.28176581494944
 31
0.0
 11
752.18357419820529
 21
238.03873801515638
 31
0.0
 11
738.30044120476487
 21
223.08673590473973
 31
0.0
 11
732.91673355754062
 21
217.68230404578878
 31
0.0
 11
727.3345322042893
 21
212.54128278646047
 31
0.0
 11
711.24678884759692
 21
198.72098889107122
 31
0.0
 11
694.77074925280453
 21
185.24827564062014
 31
0.0
 11
688.47770135314659
 21
180.43878662430416
 31
0.0
 11
682.02181816819541
 21
175.90540483648215
 31
0.0
 11
663.67432533737303
 21
163.89092828014248
 31
0.0
 11
645.00860010801659
 21
152.2711230104201
 31
0.0
 11
637.96861941231839
 21
148.18853909077689
 31
0.0
 11
630.79625893727098
 21
144.39009837429205
 31
0.0
 11
610.65472896172355
 21
134.51013134338979
 31
0.0
 11
590.26920380989554
 21
125.06314480999633
 31
0.0
 11
582.66589105208084
 21
121.81608494376665
 31
0.0
 11
574.95655509187702
 21
118.85940811611295
 31
0.0
 11
553.53865611072615
 21
111.37896535663891
 31
0.0
 11
531.9541850933723
 21
104.36152072362501
 31
0.0
 11
523.98614765080811
 21
102.03293993981909
 31
0.0
 11
515.93614647746369
 21
100.00110469990445
 31
0.0
 11
493.7955215470339
 21
95.114863380638553
 31
0.0
 11
471.56827605940208
 21
90.713522776928073
 31
0.0
 11
463.44317269492336
 21
89.359065419250413
 31
0.0
 11
455.26007967462249
 21
88.308859837449461
 31
0.0
 11
432.9704129890398
 21
86.136220379164982
 31
0.0
 11
410.67610946174062
 21
84.46209007813475
 31
0.0
 11
402.60472031101551
 21
84.108934847104109
 31
0.0
 11
394.50168356041246
 21
84.068800626599653
 31
0.0
 11
372.64039501895178
 21
84.650353942882987
 31
0.0
 11
350.8580121500168
 21
85.735155042338803
 31
0.0
 11
343.04813641003255
 21
86.381365270296087
 31
0.0
 11
335.23786814005166
 21
87.349740071383081
 31
0.0
 11
314.36892238729598
 21
90.64529326668837
 31
0.0
 11
293.66335372050429
 21
94.438937882084971
 31
0.0
 11
286.31333817121617
 21
96.053508415827764
 31
0.0
 11
279.00148627633632
 21
97.997655535614982
 31
0.0
 11
259.65673616977494
 21
103.88656963418821
 31
0.0
 11
240.55968319943679
 21
110.25704296182953
 31
0.0
 11
233.85141732234572
 21
112.78110638560607
 31
0.0
 11
227.22891387849722
 21
115.63686708062833
 31
0.0
 11
209.88764323405016
 21
123.92244423476565
 31
0.0
 11
192.87627361971025
 21
132.65993918241668
 31
0.0
 11
186.96774007434999
 21
136.010022456727
 31
0.0
 11
181.20184139309922
 21
139.68358568829694
 31
0.0
 11
166.26949744529523
 21
150.10451594549261
 31
0.0
 11
151.74389134466114
 21
160.93328796308418
 31
0.0
 11
146.76222842296656
 21
165.00789825261711
 31
0.0
 11
141.98687250650011
 21
169.38152996799587
 31
0.0
 11
129.77742680088457
 21
181.63365047255166
 31
0.0
 11
118.04184669774065
 21
194.23534874914299
 31
0.0
 11
114.07967235555259
 21
198.92556635335845
 31
0.0
 11
110.38812070607401
 21
203.8691634399016
 31
0.0
 11
101.11941386609074
 21
217.63660175451409
 31
0.0
 11
92.377999188509918
 21
231.68382022101329
 31
0.0
 11
89.497280399768314
 21
236.88528396004949
 31
0.0
 11
86.942728774056903
 21
242.27219194758152
 31
0.0
 11
80.754432802137757
 21
257.25508898171103
 31
0.0
 11
75.132771094813236
 21
272.43560856615704
 31
0.0
 11
73.379217650262035
 21
278.04779923218956
 31
0.0
 11
71.989014922817645
 21
283.75704126601204
 31
0.0
 11
68.966687497794325
 21
299.73489472605911
 31
0.0
 11
66.533723573753747
 21
315.85582315559793
 31
0.0
 11
65.941116161949665
 21
321.85837752495445
 31
0.0
 11
65.730499136665117
 21
327.86597942988794
 31
0.0
 11
66.000583072575054
 21
344.59145775857178
 31
0.0
 11
66.876624572643465
 21
361.34596752826042
 31
0.0
 11
67.507955519609226
 21
367.5560432193023
 31
0.0
 11
68.507158343896705
 21
373.68579812216564
 31
0.0
 11
72.1426253669094
 21
390.73118346896302
 31
0.0
 11
76.373475008547871
 21
407.72101133550956
 31
0.0
 11
78.247681596830802
 21
414.00670498871921
 31
0.0
 11
80.457152185603846
 21
420.13897134813413
 31
0.0
 11
87.450211722822033
 21
437.11003015611624
 31
0.0
 11
95.010149203497619
 21
453.93892307468309
 31
0.0
 11
98.112948661936528
 21
460.13486596266739
 31
0.0
 11
101.50817260901023
 21
466.12332410039227
 31
0.0
 11
111.75644740803406
 21
482.57563774758012
 31
0.0
 11
122.52710455727625
 21
498.80667013576476
 31
0.0
 11
126.80135144372562
 21
504.7375189304156
 31
0.0
 11
131.32292682109036
 21
510.42453292234063
 31
0.0
 11
144.61628196447862
 21
525.90198388152203
 31
0.0
 11
158.37530080475136
 21
541.08894083355153
 31
0.0
 11
163.72184258475716
 21
546.58343192987763
 31
0.0
 11
169.27350780921424
 21
551.81142814425425
 31
0.0
 11
185.29913951863014
 21
565.87655110849482
 31
0.0
 11
201.72503620704748
 21
579.59233388923974
 31
0.0
 11
208.00841966572145
 21
584.49324218107802
 31
0.0
 11
214.45991940455454
 21
589.11409719878657
 31
0.0
 11
232.81640886764382
 21
601.37011657662742
 31
0.0
 11
251.50167467663553
 21
613.22779849792551
 31
0.0
 11
258.55717688475278
 21
617.39808903224309
 31
0.0
 11
265.7492090866582
 21
621.27985040267299
 31
0.0
 11
285.96331079471469
 21
631.38538503994289
 31
0.0
 11
306.43029274797493
 21
641.05271608100179
 31
0.0
 11
314.07081023608879
 21
644.37931290109782
 31
0.0
 11
321.82061007546281
 21
647.41092917853075
 31
0.0
 11
343.36424189060438
 21
655.08992835186837
 31
0.0
 11
365.08151175171611
 21
662.29945832654221
 31
0.0
 11
373.10404207217584
 21
664.69571953893444
 31
0.0
 11
381.21110165684058
 21
666.7905126232298
 31
0.0
 11
403.51803136041684
 21
671.83933521951155
 31
0.0
 11
425.91671112934938
 21
676.39581862971568
 31
0.0
 11
434.10857523412329
 21
677.80328174943634
 31
0.0
 11
442.3604212568045
 21
678.90163906035218
 31
0.0
 11
464.84288035856787
 21
681.19428582270939
 31
0.0
 11
487.33307779873837
 21
682.98028692375124
 31
0.0
 11
495.4781029286263
 21
683.36989322887291
 31
0.0
 11
503.65621795856953
 21
683.44143871228948
 31
0.0
 11
525.7218819308938
 21
682.93330001299285
 31
0.0
 11
547.70964024647162
 21
681.91335615921059
 31
0.0
 11
555.59451413119109
 21
681.28614835761539
 31
0.0
 11
563.48058741955936
 21
680.33149424708108
 31
0.0
 11
584.55046381658974
 21
677.06147442989663
 31
0.0
 11
605.45580660551752
 21
673.28469219514079
 31
0.0
 11
612.87681221990545
 21
671.67179054890858
 31
0.0
 11
620.25962940546879
 21
669.72378604613345
 31
0.0
 11
639.7874689381664
 21
663.81403194890459
 31
0.0
 11
659.06427602334441
 21
657.41429694233136
 31
0.0
 11
665.83458404743772
 21
654.87567364912843
 31
0.0
 11
672.51798583157733
 21
651.99970327702817
 31
0.0
 11
690.01158590510704
 21
643.65112679063941
 31
0.0
 11
707.16982047562067
 21
634.84289822545907
 31
0.0
 11
713.12725562203275
 21
631.46401552683301
 31
0.0
 11
718.93947871133037
 21
627.7562013749648
 31
0.0
 11
733.98286515276936
 21
617.236628227349
 31
0.0
 11
748.6121079172882
 21
606.30266408370812
 31
0.0
 11
753.62639159250796
 21
602.18762213912146
 31
0.0
 11
758.43014849136273
 21
597.76887383890778
 31
0.0
 11
770.70197011063681
 21
585.39036954383494
 31
0.0
 11
782.49096028848396
 21
572.65739369296375
 31
0.0
 11
786.46752265555494
 21
567.91786428498574
 31
0.0
 11
790.16768101735988
 21
562.92178852295285
 31
0.0
 11
799.47493585490076
 21
548.95092634766377
 31
0.0
 11
808.41901812919525
 21
534.3539698256626
 31
0.0
 11
811.5064315521596
 21
528.66301126804967
 31
0.0
 11
814.32709787016051
 21
522.556598028998
 31
0.0
 11
818.96348573213834
 21
511.14617952546382
 31
0.0
 11
822.85791418717099
 21
500.77435366890472
 31
0.0
 11
823.62224936767711
 21
498.54728223943181
 31
0.0
 11
824.43941493071156
 21
495.91085356021495
 31
0.0
 11
825.43386809640913
 21
492.50145110355214
 31
0.0
 11
825.95361304816493
 21
490.68643556638904
 31
0.0
 11
826.72814876268001
 21
487.92995166742742
 31
0.0
 11
828.16829260220425
 21
482.63425441733898
 31
0.0
  0
SPLINE
  5
F2
100
AcDbEntity
  8
0
  6
CONTINUOUS
 62
             7
100
AcDbSpline
210
0.0
220
0.0
230
1.0
 70
             0
 71
             4
 72
            20
 73
            15
 74
            23
 42
0.00000000001
 43
0.00000000001
 44
0.00000000001
 40
1219.3104431426791
 40
1219.3104431426791
 40
1219.3104431426791
 40
1219.3104431426791
 40
1219.3104431426791
 40
1259.5423988028529
 40
1301.4895965052733
 40
1357.43559126626
 40
1420.7499441125638
 40
1486.708663784997
 40
1555.0840762972409
 40
1625.3824789772548
 40
1696.9131094469483
 40
1764.8019056356659
 40
1819.5787591917915
 40
1879.5425364426385
 40
1879.5425364426385
 40
1879.5425364426385
 40
1879.5425364426385
 40
1879.5425364426385
 10
40.771072315308857
 20
335.0975144193369
 30
0.0
 10
40.741656070149588
 20
339.5155669981541
 30
0.0
 10
41.057600692968208
 20
358.33916705474007
 30
0.0
 10
44.966852148980017
 20
392.08862170448992
 30
0.0
 10
58.852947878634041
 20
440.03767425836099
 30
0.0
 10
87.256005981580529
 20
495.11836096359212
 30
0.0
 10
126.4588031444619
 20
546.53372389443393
 30
0.0
 10
175.20477195931471
 20
592.8795026838709
 30
0.0
 10
232.02360771128861
 20
632.88444211767592
 30
0.0
 10
295.24246923246483
 20
665.43655595856399
 30
0.0
 10
363.01380084680301
 20
689.61097334434089
 30
0.0
 10
425.41405802520831
 20
703.01539809217707
 30
0.0
 10
470.92233354288783
 20
707.51274160162598
 30
0.0
 10
498.46226350117598
 20
708.27699958972107
 30
0.0
 10
508.01049530862292
 20
708.30214615525392
 30
0.0
 11
40.771072315308857
 21
335.0975144193369
 31
0.0
 11
41.118419168782665
 21
349.15098614227873
 31
0.0
 11
42.64811408152093
 21
367.88118310023037
 31
0.0
 11
45.756232180444165
 21
388.07435134385906
 31
0.0
 11
50.455389999125828
 21
408.25679370880931
 31
0.0
 11
59.330242481549107
 21
435.07729855304797
 31
0.0
 11
71.146331332181347
 21
461.73078407720845
 31
0.0
 11
87.411104166416763
 21
490.86983634631008
 31
0.0
 11
105.90925958508595
 21
517.98995242516276
 31
0.0
 11
127.10928873618266
 21
543.93956149444375
 31
0.0
 11
150.11478909026991
 21
567.8236526893304
 31
0.0
 11
175.72004769028203
 21
590.58956208276936
 31
0.0
 11
202.97586382844398
 21
611.41154039052151
 31
0.0
 11
232.60940485296422
 21
630.84702824500891
 31
0.0
 11
263.87070752802509
 21
648.33161778054728
 31
0.0
 11
297.47940775157571
 21
664.17170361768274
 31
0.0
 11
332.68082620759833
 21
677.93523744071479
 31
0.0
 11
366.66833964916248
 21
688.71619285546262
 31
0.0
 11
400.43994045670871
 21
696.99608805092919
 31
0.0
 11
427.54191505504582
 21
701.9164147649409
 31
0.0
 11
454.61116971317483
 21
705.39482361095816
 31
0.0
 11
483.65314603008949
 21
707.60821572216662
 31
0.0
 11
508.01049530862292
 21
708.30214615525392
 31
0.0
  0
SPLINE
  5
F1
100
AcDbEntity
  8
0
  6
CONTINUOUS
 62
             7
100
AcDbSpline
210
0.0
220
0.0
230
1.0
 70
             0
 71
             4
 72
            16
 73
            11
 74
            15
 42
0.00000000001
 43
0.00000000001
 44
0.00000000001
 40
1876.5155286863951
 40
1876.5155286863951
 40
1876.5155286863951
 40
1876.5155286863951
 40
1876.5155286863951
 40
1930.776352462354
 40
1980.5086348463533
 40
2041.654928983462
 40
2105.0606268044849
 40
2168.9429346968345
 40
2228.9637639687826
 40
2310.7042140334793
 40
2310.7042140334793
 40
2310.7042140334793
 40
2310.7042140334793
 40
2310.7042140334793
 10
508.01049530862292
 20
708.30214615525392
 30
0.0
 10
516.12195879480396
 20
708.32350879623709
 30
0.0
 10
541.370260648461
 20
707.85134836817701
 30
0.0
 10
583.00773644126707
 20
704.24651518090195
 30
0.0
 10
639.43948960087391
 20
692.35366448714899
 30
0.0
 10
699.90267782872093
 20
669.54775541155709
 30
0.0
 10
752.8644823638831
 20
636.949276419331
 30
0.0
 10
802.71212937548808
 20
594.34383193595909
 30
0.0
 10
829.81907239012389
 20
547.10097332426108
 30
0.0
 10
845.44968600021889
 20
522.31627700016907
 30
0.0
 10
850.0000000002201
 20
497.52538974433611
 30
0.0
 11
508.01049530862292
 21
708.30214615525392
 31
0.0
 11
529.71636306007508
 21
707.84466854795266
 31
0.0
 11
556.2509077198182
 21
706.09038035499725
 31
0.0
 11
581.06823245671808
 21
703.13492474051952
 31
0.0
 11
605.84622296526879
 21
698.77350935060656
 31
0.0
 11
636.31924091165195
 21
691.22895682112232
 31
0.0
 11
666.69969879680832
 21
681.09402434969991
 31
0.0
 11
697.16984230915398
 21
667.99625994267853
 31
0.0
 11
725.61051544684187
 21
652.59290470288443
 31
0.0
 11
752.05720734611202
 21
635.00740798455479
 31
0.0
 11
776.35616038184128
 21
615.19777696414212
 31
0.0
 11
796.90004427420718
 21
593.89135993570824
 31
0.0
 11
814.94804284341672
 21
570.12251954772228
 31
0.0
 11
835.68762254299554
 21
536.90623322002921
 31
0.0
 11
850.0000000002201
 21
497.52538974433611
 31
0.0
  0
SPLINE
  5
F0
100
AcDbEntity
  8
0
  6
CONTINUOUS
 62
             7
100
AcDbSpline
210
0.0
220
0.0
230
1.0
 70
             0
 71
             4
 72
            19
 73
            14
 74
            21
 42
0.00000000001
 43
0.00000000001
 44
0.00000000001
 40
62.151259953481151
 40
62.151259953481151
 40
62.151259953481151
 40
62.151259953481151
 40
62.151259953481151
 40
142.32969296753598
 40
201.4871517792248
 40
267.48041257043099
 40
333.43973715284466
 40
401.81494128246209
 40
472.11329438530959
 40
543.64425401654341
 40
611.76143165919302
 40
666.99749696286926
 40
728.10584681774151
 40
728.10584681774151
 40
728.10584681774151
 40
728.10584681774151
 40
728.10584681774151
 10
859.17525363408208
 20
436.09025371202102
 30
0.0
 10
859.58918881428895
 20
416.35399848410287
 30
0.0
 10
856.67846573034103
 20
381.53090108105607
 30
0.0
 10
843.5997998613791
 20
332.2502488286641
 30
0.0
 10
812.74552089426811
 20
272.40783279503688
 30
0.0
 10
773.54058271513099
 20
220.99132585467311
 30
0.0
 10
724.7954840887669
 20
174.6460803208499
 30
0.0
 10
667.97624993510408
 20
134.64069697961509
 30
0.0
 10
604.75771179559592
 20
102.089441540069
 30
0.0
 10
536.98577219796789
 20
77.9127438292021
 30
0.0
 10
474.13916359481129
 20
64.417720889656039
 30
0.0
 10
428.16586029049972
 20
59.918290132133961
 30
0.0
 10
400.16746042885973
 20
59.210913115776982
 30
0.0
 10
390.16293126005758
 20
59.222461503821933
 30
0.0
 11
859.17525363408208
 21
436.09025371202102
 31
0.0
 11
856.9343527927274
 21
396.50229905961589
 31
0.0
 11
848.87453757896139
 21
357.69785477481736
 31
0.0
 11
839.54652228398857
 21
330.06812785058833
 31
0.0
 11
827.64728292923007
 21
303.43404116508424
 31
0.0
 11
811.64630805159004
 21
275.0321504264852
 31
0.0
 11
793.0909565090592
 21
248.15050114587274
 31
0.0
 11
772.31897168264538
 21
222.9215064927333
 31
0.0
 11
749.5961025074397
 21
199.40290546468827
 31
0.0
 11
724.1751906167184
 21
176.83467731242237
 31
0.0
 11
697.00419022354936
 21
156.09393715590812
 31
0.0
 11
667.40001158883649
 21
136.68250878872101
 31
0.0
 11
636.16332032081777
 21
119.20964310582127
 31
0.0
 11
602.60204209831829
 21
103.38691380952029
 31
0.0
 11
567.46728896976526
 21
89.642737112161996
 31
0.0
 11
533.41911221457224
 21
78.838368258918067
 31
0.0
 11
499.55836042080574
 21
70.534947992066293
 31
0.0
 11
472.23248060181157
 21
65.576775867900821
 31
0.0
 11
444.92658965876734
 21
62.081256329849289
 31
0.0
 11
415.2760212974282
 21
59.86306788392757
 31
0.0
 11
390.16293126005758
 21
59.222461503821933
 31
0.0
  0
SPLINE
  5
EF
100
AcDbEntity
  8
0
  6
CONTINUOUS
 62
             7
100
AcDbSpline
210
0.0
220
0.0
230
1.0
 70
             0
 71
             4
 72
            18
 73
            13
 74
            19
 42
0.00000000001
 43
0.00000000001
 44
0.00000000001
 40
724.83809227963434
 40
724.83809227963434
 40
724.83809227963434
 40
724.83809227963434
 40
724.83809227963434
 40
777.95275115197842
 40
827.22706033472627
 40
888.16332755471262
 40
951.47768954874994
 40
1012.2387638023233
 40
1070.8713318839218
 40
1125.864526792674
 40
1170.8184144662077
 40
1222.6394095033543
 40
1222.6394095033543
 40
1222.6394095033543
 40
1222.6394095033543
 40
1222.6394095033543
 10
390.16293126005758
 20
59.222461503821933
 30
0.0
 10
382.50845320717099
 20
59.231297190272933
 30
0.0
 10
357.71999403540929
 20
59.760984516635062
 30
0.0
 10
316.54736091474211
 20
63.388391862988101
 30
0.0
 10
260.54037146151683
 20
75.090754462268023
 30
0.0
 10
200.1477901384105
 20
98.180548478442006
 30
0.0
 10
147.0097346435268
 20
130.07038412511289
 30
0.0
 10
102.8231844863858
 20
169.99138799656791
 30
0.0
 10
69.16236642615695
 20
216.87474336829791
 30
0.0
 10
49.085249784950072
 20
265.13587186128012
 30
0.0
 10
42.178772171224182
 20
302.13383459129591
 30
0.0
 10
40.834770599535553
 20
325.5306112551591
 30
0.0
 10
40.771072315308857
 20
335.0975144193369
 30
0.0
 11
390.16293126005758
 21
59.222461503821933
 31
0.0
 11
369.21535246272811
 21
59.729323100069777
 31
0.0
 11
343.29276259928446
 21
61.484017172069663
 31
0.0
 11
318.70599012282332
 21
64.418270540821254
 31
0.0
 11
294.12281448637225
 21
68.736406883119258
 31
0.0
 11
263.60571552153294
 21
76.31373038423375
 31
0.0
 11
233.00920020500342
 21
86.588651340669841
 31
0.0
 11
202.11605778425201
 21
99.887083936011535
 31
0.0
 11
173.24054806186527
 21
115.5083960351508
 31
0.0
 11
147.70421089614368
 21
132.65485161311034
 31
0.0
 11
124.19650122446771
 21
152.10174438783886
 31
0.0
 11
103.43854280670374
 21
173.29232551360377
 31
0.0
 11
84.863536606971053
 21
196.84856029979889
 31
0.0
 11
70.034659133766311
 21
220.61885284556672
 31
0.0
 11
58.241805420594368
 21
245.48820094055219
 31
0.0
 11
50.924624588415213
 21
266.47440064495692
 31
0.0
 11
45.629138652404698
 21
287.94379013301966
 31
0.0
 11
41.97951120885854
 21
312.80295160897236
 31
0.0
 11
40.771072315308857
 21
335.0975144193369
 31
0.0
  0
CIRCLE
  5
EE
100
AcDbEntity
  8
GEOMETRIE
  6
CONTINUOUS
 62
             7
100
AcDbCircle
 10
612.20593300015798
 20
265.36095400008708
 40
75.67802000000006
  0
CIRCLE
  5
ED
100
AcDbEntity
  8
GEOMETRIE
  6
CONTINUOUS
 62
             7
100
AcDbCircle
 10
612.20593300015798
 20
265.36095400008708
 40
68.39577899999995
  0
CIRCLE
  5
EC
100
AcDbEntity
  8
GEOMETRIE
  6
CONTINUOUS
 62
             7
100
AcDbCircle
 10
612.20593300015798
 20
265.36095400008708
 40
54.96428900000001
  0
CIRCLE
  5
EB
100
AcDbEntity
  8
GEOMETRIE
  6
CONTINUOUS
 62
             7
100
AcDbCircle
 10
612.20593300015798
 20
265.36095400008708
 40
45.0
  0
LINE
  5
EA
100
AcDbEntity
  8
WANNE
  6
CONTINUOUS
 62
             7
100
AcDbLine
 10
900.00000000023397
 20
750.00000000022897
 11
900.00000000023397
 21
250.05077901508801
  0
LINE
  5
E9
100
AcDbEntity
  8
WANNE
  6
CONTINUOUS
 62
             7
100
AcDbLine
 10
-0.00000000000091
 20
750.00000000019691
 11
0.0
 21
0.0
  0
LINE
  5
E8
100
AcDbEntity
  8
WANNE
  6
CONTINUOUS
 62
             7
100
AcDbLine
 10
0.0
 20
0.0
 11
499.76310100013012
 21
0.00000000001501
  0
LINE
  5
E7
100
AcDbEntity
  8
WANNE
  6
CONTINUOUS
 62
             7
100
AcDbLine
 10
900.00000000023397
 20
750.00000000022897
 11
-0.00000000000091
 21
750.00000000019691
  0
LINE
  5
E6
100
AcDbEntity
  8
MITTELLINIEN
  6
DOT_CENTER
 62
             3
100
AcDbLine
 10
612.20593300015798
 20
359.35090900008498
 11
612.20593300015798
 21
169.68293500008801
  0
LINE
  5
E5
100
AcDbEntity
  8
MITTELLINIEN
  6
DOT_CENTER
 62
             3
100
AcDbLine
 10
706.19588800015799
 20
265.36095400008708
 11
516.52791400015803
 21
265.36095400008708
  0
ENDBLK
  5
F6
100
AcDbEntity
  8
0
100
AcDbBlockEnd
  0
ENDSEC
  0
SECTION
  2
ENTITIES
  0
MTEXT
  5
FA
100
AcDbEntity
  8
1
 62
             3
100
AcDbMText
 10
537.20593300015798
 20
340.36095400008799
 30
0.0
 40
35.0
 41
0.0
 71
             9
 72
             1
  1
ø 90
  7
CONVERTER_1
  0
TEXT
  5
F9
100
AcDbEntity
  8
1
 62
             2
100
AcDbText
 10
250.0
 20
500.0
 40
35.0
  1
PICCOLO City 669
 41
0.71262
  7
CONVERTER_1
100
AcDbText
  0
INSERT
  5
2E
100
AcDbEntity
  8
0
100
AcDbBlockReference
  2
DLX
 10
350.0
 20
575.0
  0
INSERT
  5
2F
100
AcDbEntity
  8
0
100
AcDbBlockReference
  2
WANNE_PICCOLO_CITY_669
 10
0.0
 20
0.0
  0
ENDSEC
  0
SECTION
  2
OBJECTS
  0
DICTIONARY
  5
19
100
AcDbDictionary
  3
ACAD_GROUP
350
1A
  3
ACAD_MLINESTYLE
350
1B
  0
DICTIONARY
  5
1A
102
{ACAD_REACTORS
330
19
102
}
100
AcDbDictionary
  0
DICTIONARY
  5
1B
102
{ACAD_REACTORS
330
19
102
}
100
AcDbDictionary
  3
STANDARD
350
1C
  0
MLINESTYLE
  5
1C
102
{ACAD_REACTORS
330
1B
102
}
100
AcDbMlineStyle
  2
STANDARD
 70
             0
  3

 62
             0
 51
90.0
 52
90.0
 71
             2
 49
0.5
 62
           256
  6
BYLAYER
 49
-0.5
 62
           256
  6
BYLAYER
  0
ENDSEC
  0
EOF
