  0
SECTION
  2
HEADER
  9
$ACADVER
  1
AC1014
  9
$ACADMAINTVER
 70
             0
  9
$DWGCODEPAGE
  3
ANSI_1252
  9
$INSBASE
 10
0.0
 20
0.0
 30
0.0
  9
$EXTMIN
 10
1.00000000000000E+20
 20
1.00000000000000E+20
 30
1.00000000000000E+20
  9
$EXTMAX
 10
-1.00000000000000E+20
 20
-1.00000000000000E+20
 30
-1.00000000000000E+20
  9
$LIMMIN
 10
0.0
 20
0.0
  9
$LIMMAX
 10
0.0
 20
0.0
  9
$ORTHOMODE
 70
             0
  9
$REGENMODE
 70
             1
  9
$FILLMODE
 70
             1
  9
$QTEXTMODE
 70
             0
  9
$MIRRTEXT
 70
             1
  9
$DRAGMODE
 70
             2
  9
$LTSCALE
 40
1.0
  9
$OSMODE
 70
             0
  9
$ATTMODE
 70
             1
  9
$TEXTSIZE
 40
0.2
  9
$TRACEWID
 40
0.05
  9
$TEXTSTYLE
  7
STANDARD
  9
$CLAYER
  8
0
  9
$CELTYPE
  6
CONTINUOUS
  9
$CECOLOR
 62
           256
  9
$CELTSCALE
 40
1.0
  9
$DELOBJ
 70
             1
  9
$DISPSILH
 70
             0
  9
$DIMSCALE
 40
1.0
  9
$DIMASZ
 40
0.18
  9
$DIMEXO
 40
0.0625
  9
$DIMDLI
 40
0.38
  9
$DIMRND
 40
0.0
  9
$DIMDLE
 40
0.0
  9
$DIMEXE
 40
0.18
  9
$DIMTP
 40
0.0
  9
$DIMTM
 40
0.0
  9
$DIMTXT
 40
0.18
  9
$DIMCEN
 40
0.09
  9
$DIMTSZ
 40
0.0
  9
$DIMTOL
 70
             0
  9
$DIMLIM
 70
             0
  9
$DIMTIH
 70
             1
  9
$DIMTOH
 70
             1
  9
$DIMSE1
 70
             0
  9
$DIMSE2
 70
             0
  9
$DIMTAD
 70
             0
  9
$DIMZIN
 70
             0
  9
$DIMBLK
  1

  9
$DIMASO
 70
             1
  9
$DIMSHO
 70
             1
  9
$DIMPOST
  1

  9
$DIMAPOST
  1

  9
$DIMALT
 70
             0
  9
$DIMALTD
 70
             2
  9
$DIMALTF
 40
25.4
  9
$DIMLFAC
 40
1.0
  9
$DIMTOFL
 70
             0
  9
$DIMTVP
 40
0.0
  9
$DIMTIX
 70
             0
  9
$DIMSOXD
 70
             0
  9
$DIMSAH
 70
             0
  9
$DIMBLK1
  1

  9
$DIMBLK2
  1

  9
$DIMSTYLE
  2
STANDARD
  9
$DIMCLRD
 70
             0
  9
$DIMCLRE
 70
             0
  9
$DIMCLRT
 70
             0
  9
$DIMTFAC
 40
1.0
  9
$DIMGAP
 40
0.09
  9
$DIMJUST
 70
             0
  9
$DIMSD1
 70
             0
  9
$DIMSD2
 70
             0
  9
$DIMTOLJ
 70
             1
  9
$DIMTZIN
 70
             0
  9
$DIMALTZ
 70
             0
  9
$DIMALTTZ
 70
             0
  9
$DIMFIT
 70
             3
  9
$DIMUPT
 70
             0
  9
$DIMUNIT
 70
             2
  9
$DIMDEC
 70
             4
  9
$DIMTDEC
 70
             4
  9
$DIMALTU
 70
             2
  9
$DIMALTTD
 70
             2
  9
$DIMTXSTY
  7
STANDARD
  9
$DIMAUNIT
 70
             0
  9
$LUNITS
 70
             2
  9
$LUPREC
 70
             4
  9
$SKETCHINC
 40
0.1
  9
$FILLETRAD
 40
0.0
  9
$AUNITS
 70
             0
  9
$AUPREC
 70
             0
  9
$MENU
  1
acad
  9
$ELEVATION
 40
0.0
  9
$PELEVATION
 40
0.0
  9
$THICKNESS
 40
0.0
  9
$LIMCHECK
 70
             0
  9
$BLIPMODE
 70
             1
  9
$CHAMFERA
 40
0.0
  9
$CHAMFERB
 40
0.0
  9
$CHAMFERC
 40
0.0
  9
$CHAMFERD
 40
0.0
  9
$SKPOLY
 70
             0
  9
$TDCREATE
 40
0.000000000
  9
$TDUPDATE
 40
0.000000000
  9
$TDINDWG
 40
0.0000000000
  9
$TDUSRTIMER
 40
0.0000000000
  9
$USRTIMER
 70
             1
  9
$ANGBASE
 50
0.0
  9
$ANGDIR
 70
             0
  9
$PDMODE
 70
             0
  9
$PDSIZE
 40
0.0
  9
$PLINEWID
 40
0.0
  9
$COORDS
 70
             0
  9
$SPLFRAME
 70
             0
  9
$SPLINETYPE
 70
             6
  9
$SPLINESEGS
 70
             8
  9
$ATTDIA
 70
             0
  9
$ATTREQ
 70
             1
  9
$HANDLING
 70
             1
  9
$HANDSEED
  5
FC
  9
$SURFTAB1
 70
             6
  9
$SURFTAB2
 70
             6
  9
$SURFTYPE
 70
             6
  9
$SURFU
 70
             6
  9
$SURFV
 70
             6
  9
$UCSNAME
  2

  9
$UCSORG
 10
0.0
 20
0.0
 30
0.0
  9
$UCSXDIR
 10
1.0
 20
0.0
 30
0.0
  9
$UCSYDIR
 10
0.0
 20
1.0
 30
0.0
  9
$PUCSNAME
  2

  9
$PUCSORG
 10
0.0
 20
0.0
 30
0.0
  9
$PUCSXDIR
 10
1.0
 20
0.0
 30
0.0
  9
$PUCSYDIR
 10
0.0
 20
1.0
 30
0.0
  9
$USERI1
 70
             0
  9
$USERI2
 70
             0
  9
$USERI3
 70
             0
  9
$USERI4
 70
             0
  9
$USERI5
 70
             0
  9
$USERR1
 40
11.6
  9
$USERR2
 40
0.0
  9
$USERR3
 40
0.0
  9
$USERR4
 40
0.0
  9
$USERR5
 40
0.0
  9
$WORLDVIEW
 70
             1
  9
$SHADEDGE
 70
             3
  9
$SHADEDIF
 70
            70
  9
$TILEMODE
 70
             1
  9
$MAXACTVP
 70
            16
  9
$PINSBASE
 10
0.0
 20
0.0
 30
0.0
  9
$PLIMCHECK
 70
             0
  9
$PEXTMIN
 10
1.00000000000000E+20
 20
1.00000000000000E+20
 30
1.00000000000000E+20
  9
$PEXTMAX
 10
-1.00000000000000E+20
 20
-1.00000000000000E+20
 30
-1.00000000000000E+20
  9
$PLIMMIN
 10
0.0
 20
0.0
  9
$PLIMMAX
 10
12.0
 20
9.0
  9
$UNITMODE
 70
             0
  9
$VISRETAIN
 70
             0
  9
$PLINEGEN
 70
             1
  9
$PSLTSCALE
 70
             0
  9
$TREEDEPTH
 70
          3020
  9
$PICKSTYLE
 70
             1
  9
$CMLSTYLE
  2
STANDARD
  9
$CMLJUST
 70
             0
  9
$CMLSCALE
 40
1.0
  9
$PROXYGRAPHICS
 70
             0
  9
$MEASUREMENT
 70
             1
  0
ENDSEC
  0
SECTION
  2
CLASSES
  0
CLASS
  1
LWPOLYLINE
  2
AcDbPolyline
  3
"AutoCAD"
 90
        0
280
             0
281
             1
  0
CLASS
  1
IMAGE
  2
AcDbRasterImage
  3
ISM
 90
      127
280
             0
281
             1
  0
CLASS
  1
OLE2FRAME
  2
AcDbOle2Frame
  3
""
 90
        0
280
             0
281
             1
  0
CLASS
  1
HATCH
  2
AcDbHatch
  3
"ACAD_SEDONA"
 90
        0
280
             0
281
             1
  0
CLASS
  1
DICTIONARYVAR
  2
AcDbDictionaryVar
  3
"AutoCAD"
 90
        0
280
             0
281
             0
  0
CLASS
  1
RASTERVARIABLES
  2
AcDbRasterVariables
  3
ISM
 90
        0
280
             0
281
             0
  0
CLASS
  1
IMAGEDEF
  2
AcDbRasterImageDef
  3
ISM
 90
        0
280
             0
281
             0
  0
CLASS
  1
IMAGEDEF_REACTOR
  2
AcDbRasterImageDefReactor
  3
ISM
 90
        1
280
             0
281
             0
  0
CLASS
  1
IDBUFFER
  2
AcDbIdBuffer
  3
"Acad"
 90
        0
280
             0
281
             0
  0
CLASS
  1
SPATIAL_FILTER
  2
AcDbSpatialFilter
  3
"Acad"
 90
        0
280
             0
281
             0
  0
CLASS
  1
XRECORD
  2
AcDbXrecord
  3
"<Built In>"
 90
        0
280
             0
281
             0
  0
CLASS
  1
SORTENTSTABLE
  2
AcDbSortentsTable
  3
"AutoCAD"
 90
        0
280
             0
281
             0
  0
CLASS
  1
LAYER_INDEX
  2
AcDbLayerIndex
  3
"Acad"
 90
        0
280
             0
281
             0
  0
CLASS
  1
SPATIAL_INDEX
  2
AcDbSpatialIndex
  3
"Acad"
 90
        0
280
             0
281
             0
  0
CLASS
  1
OBJECT_PTR
  2
CAseDLPNTableRecord
  3
"ASE-LPNTableRecord"
 90
        1
280
             0
281
             0
  0
CLASS
  1
LAYOUT
  2
AcDbLayout
  3
"AutoCAD 2000"
 90
        1
280
             0
281
             0
  0
CLASS
  1
PLOTSETTINGS
  2
AcDbPlotSettings
  3
"AutoCAD 2000"
 90
        1
280
             0
281
             0
  0
CLASS
  1
ACDBDICTIONARYWDFLT
  2
AcDbDictionaryWithDefault
  3
"AutoCAD 2000"
 90
        1
280
             0
281
             0
  0
CLASS
  1
ACDBPLACEHOLDER
  2
AcDbPlaceHolder
  3
"AutoCAD 2000"
 90
        1
280
             0
281
             0
  0
ENDSEC
  0
SECTION
  2
TABLES
  0
TABLE
  2
VPORT
  5
7
100
AcDbSymbolTable
 70
             1
  0
VPORT
  5
15
100
AcDbSymbolTableRecord
100
AcDbViewportTableRecord
  2
*ACTIVE
 70
             0
 10
0.0
 20
0.0
 11
1.0
 21
1.0
 12
448.82018139519681
 22
373.82018479953808
 13
0.0
 23
0.0
 14
1.0
 24
1.0
 15
0.0
 25
0.0
 16
0.0
 26
0.0
 36
1.0
 17
0.0
 27
0.0
 37
0.0
 40
827.59559344150853
 41
1.60267857142857
 42
50.0
 43
0.0
 44
0.0
 50
0.0
 51
0.0
 71
             0
 72
           100
 73
             1
 74
             1
 75
             0
 76
             0
 77
             0
 78
             0
  0
ENDTAB
  0
TABLE
  2
LTYPE
  5
4
100
AcDbSymbolTable
 70
            10
  0
LTYPE
  5
11
100
AcDbSymbolTableRecord
100
AcDbLinetypeTableRecord
  2
BYBLOCK
 70
            64
  3

 72
            65
 73
             0
 40
0.0
  0
LTYPE
  5
12
100
AcDbSymbolTableRecord
100
AcDbLinetypeTableRecord
  2
BYLAYER
 70
            64
  3

 72
            65
 73
             0
 40
0.0
  0
LTYPE
  5
13
100
AcDbSymbolTableRecord
100
AcDbLinetypeTableRecord
  2
CONTINUOUS
 70
            64
  3
Solid line
 72
            65
 73
             0
 40
0.0
  0
LTYPE
  5
1D
100
AcDbSymbolTableRecord
100
AcDbLinetypeTableRecord
  2
DASHED
 70
            64
  3
Dashed
 72
            65
 73
             2
 40
15.0
 49
12.0
 74
             0
 49
-3.0
 74
             0
  0
LTYPE
  5
1E
100
AcDbSymbolTableRecord
100
AcDbLinetypeTableRecord
  2
DOTTED
 70
            64
  3
Dotted
 72
            65
 73
             2
 40
3.5
 49
0.5
 74
             0
 49
-3.0
 74
             0
  0
LTYPE
  5
1F
100
AcDbSymbolTableRecord
100
AcDbLinetypeTableRecord
  2
DOT_CENTER
 70
            64
  3
Dot_Center
 72
            65
 73
             4
 40
2.0
 49
1.25
 74
             0
 49
-0.25
 74
             0
 49
0.25
 74
             0
 49
-0.25
 74
             0
  0
LTYPE
  5
20
100
AcDbSymbolTableRecord
100
AcDbLinetypeTableRecord
  2
LONG_DASHED
 70
            64
  3
Long_Dashed
 72
            65
 73
             2
 40
2.0
 49
1.5
 74
             0
 49
-0.5
 74
             0
  0
LTYPE
  5
21
100
AcDbSymbolTableRecord
100
AcDbLinetypeTableRecord
  2
DASH_CENTER
 70
            64
  3
Dash_Center
 72
            65
 73
             4
 40
36.0
 49
24.0
 74
             0
 49
-3.0
 74
             0
 49
6.0
 74
             0
 49
-3.0
 74
             0
  0
LTYPE
  5
22
100
AcDbSymbolTableRecord
100
AcDbLinetypeTableRecord
  2
PHANTOM
 70
            64
  3
Phantom
 72
            65
 73
             6
 40
2.5
 49
1.25
 74
             0
 49
-0.25
 74
             0
 49
0.25
 74
             0
 49
-0.25
 74
             0
 49
0.25
 74
             0
 49
-0.25
 74
             0
  0
LTYPE
  5
23
100
AcDbSymbolTableRecord
100
AcDbLinetypeTableRecord
  2
CENTER_DASH_DASH
 70
            64
  3
Center_Dash_Dash
 72
            65
 73
             6
 40
22.0
 49
12.0
 74
             0
 49
-3.0
 74
             0
 49
0.5
 74
             0
 49
-3.0
 74
             0
 49
0.5
 74
             0
 49
-3.0
 74
             0
  0
ENDTAB
  0
TABLE
  2
LAYER
  5
2
100
AcDbSymbolTable
 70
             5
  0
LAYER
  5
14
100
AcDbSymbolTableRecord
100
AcDbLayerTableRecord
  2
0
 70
             0
 62
             7
  6
CONTINUOUS
  0
LAYER
  5
24
100
AcDbSymbolTableRecord
100
AcDbLayerTableRecord
  2
MITTELLINIEN
 70
             0
 62
             7
  6
CONTINUOUS
  0
LAYER
  5
25
100
AcDbSymbolTableRecord
100
AcDbLayerTableRecord
  2
1
 70
             0
 62
             7
  6
CONTINUOUS
  0
LAYER
  5
26
100
AcDbSymbolTableRecord
100
AcDbLayerTableRecord
  2
GEOMETRIE
 70
             0
 62
             7
  6
CONTINUOUS
  0
LAYER
  5
27
100
AcDbSymbolTableRecord
100
AcDbLayerTableRecord
  2
WANNE
 70
             0
 62
             7
  6
CONTINUOUS
  0
ENDTAB
  0
TABLE
  2
STYLE
  5
3
100
AcDbSymbolTable
 70
             2
  0
STYLE
  5
17
100
AcDbSymbolTableRecord
100
AcDbTextStyleTableRecord
  2
STANDARD
 70
             0
 40
0.0
 41
1.0
 50
0.0
 71
             0
 42
0.0
  3
txt
  4

  0
STYLE
  5
F8
100
AcDbSymbolTableRecord
100
AcDbTextStyleTableRecord
  2
CONVERTER_1
 70
             0
 40
0.0
 41
0.71262
 50
0.0
 71
             0
 42
0.0
  3
txt.shx
  4

  0
ENDTAB
  0
TABLE
  2
VIEW
  5
5
100
AcDbSymbolTable
 70
             0
  0
ENDTAB
  0
TABLE
  2
UCS
  5
6
100
AcDbSymbolTable
 70
             0
  0
ENDTAB
  0
TABLE
  2
APPID
  5
8
100
AcDbSymbolTable
 70
             1
  0
APPID
  5
16
100
AcDbSymbolTableRecord
100
AcDbRegAppTableRecord
  2
ACAD
 70
             0
  0
ENDTAB
  0
TABLE
  2
DIMSTYLE
  5
9
100
AcDbSymbolTable
 70
             1
  0
DIMSTYLE
105
18
100
AcDbSymbolTableRecord
100
AcDbDimStyleTableRecord
  2
STANDARD
 70
             0
  3

  4

  5

  6

  7

 40
1.0
 41
0.18
 42
0.0625
 43
0.38
 44
0.18
 45
0.0
 46
0.0
 47
0.0
 48
0.0
 71
             0
 72
             0
 73
             1
 74
             1
 75
             0
 76
             0
 77
             0
 78
             0
140
0.18
141
0.09
142
0.0
143
25.4
144
1.0
145
0.0
146
1.0
147
0.09
170
             0
171
             2
172
             0
173
             0
174
             0
175
             0
176
             0
177
             0
178
             0
270
             2
271
             4
272
             4
273
             2
274
             2
275
             0
280
             0
281
             0
282
             0
283
             1
284
             0
285
             0
286
             0
287
             0
288
             0
340
17
  0
ENDTAB
  0
TABLE
  2
BLOCK_RECORD
  5
1
100
AcDbSymbolTable
 70
             2
  0
BLOCK_RECORD
  5
A
100
AcDbSymbolTableRecord
100
AcDbBlockTableRecord
  2
*MODEL_SPACE
  0
BLOCK_RECORD
  5
B
100
AcDbSymbolTableRecord
100
AcDbBlockTableRecord
  2
*PAPER_SPACE
  0
BLOCK_RECORD
  5
28
100
AcDbSymbolTableRecord
100
AcDbBlockTableRecord
  2
DLX
  0
BLOCK_RECORD
  5
2A
100
AcDbSymbolTableRecord
100
AcDbBlockTableRecord
  2
WANNE_PICCOLO_CITY_670
  0
ENDTAB
  0
ENDSEC
  0
SECTION
  2
BLOCKS
  0
BLOCK
  5
D
100
AcDbEntity
  8
0
100
AcDbBlockBegin
  2
*MODEL_SPACE
 70
             0
 10
0.0
 20
0.0
 30
0.0
  3
*MODEL_SPACE
  1

  0
ENDBLK
  5
E
100
AcDbEntity
  8
0
100
AcDbBlockEnd
  0
BLOCK
  5
F
100
AcDbEntity
 67
             1
  8
0
100
AcDbBlockBegin
  2
*PAPER_SPACE
 70
             0
 10
0.0
 20
0.0
 30
0.0
  3
*PAPER_SPACE
  1

  0
ENDBLK
  5
10
100
AcDbEntity
 67
             1
  8
0
100
AcDbBlockEnd
  0
BLOCK
  5
29
100
AcDbEntity
  8
0
100
AcDbBlockBegin
  2
DLX
 70
             0
 10
319.67049684802652
 20
575.0
 30
0.0
  3
DLX
  1

  0
CIRCLE
  5
E3
100
AcDbEntity
  8
1
  6
CONTINUOUS
 62
             3
100
AcDbCircle
 10
492.40637208596348
 20
625.87878787875479
 40
5.97286277875418
  0
CIRCLE
  5
E2
100
AcDbEntity
  8
1
  6
CONTINUOUS
 62
             3
100
AcDbCircle
 10
492.40637208596348
 20
625.87878787875479
 40
5.53012798969621
  0
ARC
  5
E1
100
AcDbEntity
  8
1
  6
CONTINUOUS
 62
             3
100
AcDbCircle
 10
492.61319091734248
 20
627.30391992138084
 40
2.00979800886152
100
AcDbArc
 50
-55.92998846458166
 51
86.2978887182655
  0
ARC
  5
E0
100
AcDbEntity
  8
1
  6
CONTINUOUS
 62
             3
100
AcDbCircle
 10
492.53487309132828
 20
627.26402593055082
 40
1.25768728776727
100
AcDbArc
 50
-74.80041904705217
 51
80.93139523878973
  0
ARC
  5
DF
100
AcDbEntity
  8
1
  6
CONTINUOUS
 62
             3
100
AcDbCircle
 10
492.45969045313251
 20
624.05303938982206
 40
1.15588979823165
100
AcDbArc
 50
0.98505817048516
 51
82.91825463293485
  0
ARC
  5
DE
100
AcDbEntity
  8
1
  6
CONTINUOUS
 62
             3
100
AcDbCircle
 10
493.18508363962252
 20
624.36223368222591
 40
1.39187009132818
100
AcDbArc
 50
-1.298612665736
 51
66.54486649405253
  0
LINE
  5
DD
100
AcDbEntity
  8
1
  6
CONTINUOUS
 62
             3
100
AcDbLine
 10
384.99872031734441
 20
621.97989581078173
 11
384.70331722996372
 21
622.97844787236295
  0
LINE
  5
DC
100
AcDbEntity
  8
1
  6
CONTINUOUS
 62
             3
100
AcDbLine
 10
385.43539999891101
 20
623.76220485833164
 11
384.70331722996372
 21
622.97844787236295
  0
LINE
  5
DB
100
AcDbEntity
  8
1
  6
CONTINUOUS
 62
             3
100
AcDbLine
 10
420.46642396758028
 20
593.23770878452706
 11
423.85083145846153
 21
607.05117514507901
  0
LINE
  5
DA
100
AcDbEntity
  8
1
  6
CONTINUOUS
 62
             3
100
AcDbLine
 10
416.27826981234148
 20
593.23770878452706
 11
419.66267730335738
 21
607.05117514507901
  0
LINE
  5
D9
100
AcDbEntity
  8
1
  6
CONTINUOUS
 62
             3
100
AcDbLine
 10
416.27826981234148
 20
593.23770878452706
 11
420.46642396758028
 21
593.23770878452706
  0
LINE
  5
D8
100
AcDbEntity
  8
1
  6
CONTINUOUS
 62
             3
100
AcDbLine
 10
415.19429575317241
 20
588.81346636034095
 11
419.38244990836029
 21
588.81346636034095
  0
LINE
  5
D7
100
AcDbEntity
  8
1
  6
CONTINUOUS
 62
             3
100
AcDbLine
 10
415.99804241746529
 20
575.0
 11
422.28027365036218
 21
575.0
  0
LINE
  5
D6
100
AcDbEntity
  8
1
  6
CONTINUOUS
 62
             3
100
AcDbLine
 10
419.66267730335738
 20
607.05117514507901
 11
413.38044607049233
 21
607.05117514507901
  0
LINE
  5
D5
100
AcDbEntity
  8
1
  6
CONTINUOUS
 62
             3
100
AcDbLine
 10
451.07383346731541
 20
607.05117514507901
 11
443.22104442629637
 21
575.0
  0
LINE
  5
D4
100
AcDbEntity
  8
1
  6
CONTINUOUS
 62
             3
100
AcDbLine
 10
443.70762817531858
 20
602.62693272083879
 11
438.0227872525943
 21
579.42424242418201
  0
LINE
  5
D3
100
AcDbEntity
  8
1
  6
CONTINUOUS
 62
             3
100
AcDbLine
 10
439.51947402006817
 20
602.62693272083879
 11
443.70762817531858
 21
602.62693272083879
  0
LINE
  5
D2
100
AcDbEntity
  8
1
  6
CONTINUOUS
 62
             3
100
AcDbLine
 10
451.07383346731541
 20
607.05117514507901
 11
434.32121684648558
 21
607.05117514507901
  0
LINE
  5
D1
100
AcDbEntity
  8
1
  6
CONTINUOUS
 62
             3
100
AcDbLine
 10
433.83463309749351
 20
579.42424242418201
 11
439.51947402006817
 21
602.62693272083879
  0
LINE
  5
D0
100
AcDbEntity
  8
1
  6
CONTINUOUS
 62
             3
100
AcDbLine
 10
434.32121684648558
 20
607.05117514507901
 11
426.46842780548832
 21
575.0
  0
LINE
  5
CF
100
AcDbEntity
  8
1
  6
CONTINUOUS
 62
             3
100
AcDbLine
 10
438.0227872525943
 20
579.42424242418201
 11
433.83463309749351
 21
579.42424242418201
  0
LINE
  5
CE
100
AcDbEntity
  8
1
  6
CONTINUOUS
 62
             3
100
AcDbLine
 10
426.46842780548832
 20
575.0
 11
443.22104442629637
 21
575.0
  0
LINE
  5
CD
100
AcDbEntity
  8
1
  6
CONTINUOUS
 62
             3
100
AcDbLine
 10
430.13306269137729
 20
607.05117514507901
 11
423.85083145846153
 21
607.05117514507901
  0
LINE
  5
CC
100
AcDbEntity
  8
1
  6
CONTINUOUS
 62
             3
100
AcDbLine
 10
413.38044607049233
 20
607.05117514507901
 11
405.52765702949932
 21
575.0
  0
LINE
  5
CB
100
AcDbEntity
  8
1
  6
CONTINUOUS
 62
             3
100
AcDbLine
 10
411.80988826228742
 20
575.0
 11
415.19429575317241
 21
588.81346636034095
  0
LINE
  5
CA
100
AcDbEntity
  8
1
  6
CONTINUOUS
 62
             3
100
AcDbLine
 10
415.99804241746529
 20
575.0
 11
419.38244990836029
 21
588.81346636034095
  0
LINE
  5
C9
100
AcDbEntity
  8
1
  6
CONTINUOUS
 62
             3
100
AcDbLine
 10
422.28027365036218
 20
575.0
 11
430.13306269137729
 21
607.05117514507901
  0
LINE
  5
C8
100
AcDbEntity
  8
1
  6
CONTINUOUS
 62
             3
100
AcDbLine
 10
405.52765702949932
 20
575.0
 11
411.80988826228742
 21
575.0
  0
LINE
  5
C7
100
AcDbEntity
  8
1
  6
CONTINUOUS
 62
             3
100
AcDbLine
 10
400.20012553454239
 20
595.99056908441298
 11
406.48235676734839
 21
595.99056908441298
  0
LINE
  5
C6
100
AcDbEntity
  8
1
  6
CONTINUOUS
 62
             3
100
AcDbLine
 10
401.82608662333632
 20
602.62693272083879
 11
400.20012553454239
 21
595.99056908441298
  0
LINE
  5
C5
100
AcDbEntity
  8
1
  6
CONTINUOUS
 62
             3
100
AcDbLine
 10
397.6379324681443
 20
602.62693272083879
 11
401.82608662333632
 21
602.62693272083879
  0
LINE
  5
C4
100
AcDbEntity
  8
1
  6
CONTINUOUS
 62
             3
100
AcDbLine
 10
391.95309154551461
 20
579.42424242418201
 11
397.6379324681443
 21
602.62693272083879
  0
LINE
  5
C3
100
AcDbEntity
  8
1
  6
CONTINUOUS
 62
             3
100
AcDbLine
 10
396.14124570071732
 20
579.42424242418201
 11
391.95309154551461
 21
579.42424242418201
  0
LINE
  5
C2
100
AcDbEntity
  8
1
  6
CONTINUOUS
 62
             3
100
AcDbLine
 10
397.76720678950443
 20
586.06060606060805
 11
396.14124570071732
 21
579.42424242418201
  0
LINE
  5
C1
100
AcDbEntity
  8
1
  6
CONTINUOUS
 62
             3
100
AcDbLine
 10
404.04943802229258
 20
586.06060606060805
 11
397.76720678950443
 21
586.06060606060805
  0
LINE
  5
C0
100
AcDbEntity
  8
1
  6
CONTINUOUS
 62
             3
100
AcDbLine
 10
401.33950287431838
 20
575.0
 11
404.04943802229258
 21
586.06060606060805
  0
LINE
  5
BF
100
AcDbEntity
  8
1
  6
CONTINUOUS
 62
             3
100
AcDbLine
 10
384.58688625356473
 20
575.0
 11
401.33950287431838
 21
575.0
  0
LINE
  5
BE
100
AcDbEntity
  8
1
  6
CONTINUOUS
 62
             3
100
AcDbLine
 10
392.4396752945579
 20
607.05117514507901
 11
384.58688625356473
 21
575.0
  0
LINE
  5
BD
100
AcDbEntity
  8
1
  6
CONTINUOUS
 62
             3
100
AcDbLine
 10
409.19229191527847
 20
607.05117514507901
 11
392.4396752945579
 21
607.05117514507901
  0
LINE
  5
BC
100
AcDbEntity
  8
1
  6
CONTINUOUS
 62
             3
100
AcDbLine
 10
406.48235676734839
 20
595.99056908441298
 11
409.19229191527847
 21
607.05117514507901
  0
LINE
  5
BB
100
AcDbEntity
  8
1
  6
CONTINUOUS
 62
             3
100
AcDbLine
 10
387.16754708018198
 20
602.62693272083879
 11
388.25152113934058
 21
607.05117514507901
  0
LINE
  5
BA
100
AcDbEntity
  8
1
  6
CONTINUOUS
 62
             3
100
AcDbLine
 10
376.69716169220209
 20
602.62693272083879
 11
387.16754708018198
 21
602.62693272083879
  0
LINE
  5
B9
100
AcDbEntity
  8
1
  6
CONTINUOUS
 62
             3
100
AcDbLine
 10
374.26424294718908
 20
592.69696969695292
 11
376.69716169220209
 21
602.62693272083879
  0
LINE
  5
B8
100
AcDbEntity
  8
1
  6
CONTINUOUS
 62
             3
100
AcDbLine
 10
384.73462833525292
 20
592.69696969695292
 11
374.26424294718908
 21
592.69696969695292
  0
LINE
  5
B7
100
AcDbEntity
  8
1
  6
CONTINUOUS
 62
             3
100
AcDbLine
 10
380.39873209832899
 20
575.0
 11
384.73462833525292
 21
592.69696969695292
  0
LINE
  5
B6
100
AcDbEntity
  8
1
  6
CONTINUOUS
 62
             3
100
AcDbLine
 10
363.64611547750633
 20
575.0
 11
380.39873209832899
 21
575.0
  0
LINE
  5
B5
100
AcDbEntity
  8
1
  6
CONTINUOUS
 62
             3
100
AcDbLine
 10
364.73008953681369
 20
579.42424242418201
 11
363.64611547750633
 21
575.0
  0
LINE
  5
B4
100
AcDbEntity
  8
1
  6
CONTINUOUS
 62
             3
100
AcDbLine
 10
375.20047492472457
 20
579.42424242418201
 11
364.73008953681369
 21
579.42424242418201
  0
LINE
  5
B3
100
AcDbEntity
  8
1
  6
CONTINUOUS
 62
             3
100
AcDbLine
 10
377.36842304314308
 20
588.27272727279706
 11
375.20047492472457
 21
579.42424242418201
  0
LINE
  5
B2
100
AcDbEntity
  8
1
  6
CONTINUOUS
 62
             3
100
AcDbLine
 10
366.89803765517718
 20
588.27272727279706
 11
377.36842304314308
 21
588.27272727279706
  0
LINE
  5
B1
100
AcDbEntity
  8
1
  6
CONTINUOUS
 62
             3
100
AcDbLine
 10
371.49890451856868
 20
607.05117514507901
 11
366.89803765517718
 21
588.27272727279706
  0
LINE
  5
B0
100
AcDbEntity
  8
1
  6
CONTINUOUS
 62
             3
100
AcDbLine
 10
388.25152113934058
 20
607.05117514507901
 11
371.49890451856868
 21
607.05117514507901
  0
LINE
  5
AF
100
AcDbEntity
  8
1
  6
CONTINUOUS
 62
             3
100
AcDbLine
 10
367.31075036340582
 20
607.05117514507901
 11
359.4579613223907
 21
575.0
  0
LINE
  5
AE
100
AcDbEntity
  8
1
  6
CONTINUOUS
 62
             3
100
AcDbLine
 10
361.02851913059948
 20
607.05117514507901
 11
367.31075036340582
 21
607.05117514507901
  0
LINE
  5
AD
100
AcDbEntity
  8
1
  6
CONTINUOUS
 62
             3
100
AcDbLine
 10
359.4579613223907
 20
575.0
 11
341.65830616280101
 21
575.0
  0
LINE
  5
AC
100
AcDbEntity
  8
1
  6
CONTINUOUS
 62
             3
100
AcDbLine
 10
354.25970414879379
 20
579.42424242418201
 11
361.02851913059948
 21
607.05117514507901
  0
LINE
  5
AB
100
AcDbEntity
  8
1
  6
CONTINUOUS
 62
             3
100
AcDbLine
 10
349.02451145480899
 20
579.42424242418201
 11
354.25970414879379
 21
579.42424242418201
  0
LINE
  5
AA
100
AcDbEntity
  8
1
  6
CONTINUOUS
 62
             3
100
AcDbLine
 10
355.7933264366041
 20
607.05117514507901
 11
349.02451145480899
 21
579.42424242418201
  0
LINE
  5
A9
100
AcDbEntity
  8
1
  6
CONTINUOUS
 62
             3
100
AcDbLine
 10
349.51109520379418
 20
607.05117514507901
 11
355.7933264366041
 21
607.05117514507901
  0
LINE
  5
A8
100
AcDbEntity
  8
1
  6
CONTINUOUS
 62
             3
100
AcDbLine
 10
341.65830616280101
 20
575.0
 11
349.51109520379418
 21
607.05117514507901
  0
LINE
  5
A7
100
AcDbEntity
  8
1
  6
CONTINUOUS
 62
             3
100
AcDbLine
 10
337.47015200767441
 20
575.0
 11
319.67049684802652
 21
575.0
  0
LINE
  5
A6
100
AcDbEntity
  8
1
  6
CONTINUOUS
 62
             3
100
AcDbLine
 10
348.03287619659409
 20
618.11178120566183
 11
337.47015200767441
 21
575.0
  0
LINE
  5
A5
100
AcDbEntity
  8
1
  6
CONTINUOUS
 62
             3
100
AcDbLine
 10
324.05954911930189
 20
618.11178120566183
 11
348.03287619659409
 21
618.11178120566183
  0
LINE
  5
A4
100
AcDbEntity
  8
1
  6
CONTINUOUS
 62
             3
100
AcDbLine
 10
322.70458154531678
 20
612.58147817540475
 11
324.05954911930189
 21
618.11178120566183
  0
LINE
  5
A3
100
AcDbEntity
  8
1
  6
CONTINUOUS
 62
             3
100
AcDbLine
 10
340.39567738985011
 20
612.58147817540475
 11
322.70458154531678
 21
612.58147817540475
  0
LINE
  5
A2
100
AcDbEntity
  8
1
  6
CONTINUOUS
 62
             3
100
AcDbLine
 10
332.27189483396819
 20
579.42424242418201
 11
340.39567738985011
 21
612.58147817540475
  0
LINE
  5
A1
100
AcDbEntity
  8
1
  6
CONTINUOUS
 62
             3
100
AcDbLine
 10
327.03670214008912
 20
579.42424242418201
 11
332.27189483396819
 21
579.42424242418201
  0
LINE
  5
A0
100
AcDbEntity
  8
1
  6
CONTINUOUS
 62
             3
100
AcDbLine
 10
333.80551712177862
 20
607.05117514507901
 11
327.03670214008912
 21
579.42424242418201
  0
LINE
  5
9F
100
AcDbEntity
  8
1
  6
CONTINUOUS
 62
             3
100
AcDbLine
 10
327.52328588908148
 20
607.05117514507901
 11
333.80551712177862
 21
607.05117514507901
  0
LINE
  5
9E
100
AcDbEntity
  8
1
  6
CONTINUOUS
 62
             3
100
AcDbLine
 10
319.67049684802652
 20
575.0
 11
327.52328588908148
 21
607.05117514507901
  0
LINE
  5
9D
100
AcDbEntity
  8
1
  6
CONTINUOUS
 62
             3
100
AcDbLine
 10
454.7901780815414
 20
581.19393939390966
 11
463.83533858763241
 21
618.11178120566183
  0
LINE
  5
9C
100
AcDbEntity
  8
1
  6
CONTINUOUS
 62
             3
100
AcDbLine
 10
463.83533858763241
 20
618.11178120566183
 11
457.97192277036447
 21
618.11178120566183
  0
LINE
  5
9B
100
AcDbEntity
  8
1
  6
CONTINUOUS
 62
             3
100
AcDbLine
 10
457.97192277036447
 20
618.11178120566183
 11
447.40919858142342
 21
575.0
  0
LINE
  5
9A
100
AcDbEntity
  8
1
  6
CONTINUOUS
 62
             3
100
AcDbLine
 10
465.31355759499371
 20
607.05117514507901
 11
459.62871667230547
 21
583.8484848484768
  0
LINE
  5
99
100
AcDbEntity
  8
1
  6
CONTINUOUS
 62
             3
100
AcDbLine
 10
459.62871667230547
 20
583.8484848484768
 11
475.33429475422651
 21
583.8484848484768
  0
LINE
  5
98
100
AcDbEntity
  8
1
  6
CONTINUOUS
 62
             3
100
AcDbLine
 10
475.33429475422651
 20
583.8484848484768
 11
481.01913567683442
 21
607.05117514507901
  0
LINE
  5
97
100
AcDbEntity
  8
1
  6
CONTINUOUS
 62
             3
100
AcDbLine
 10
481.01913567683442
 20
607.05117514507901
 11
475.78394298291158
 21
607.05117514507901
  0
LINE
  5
96
100
AcDbEntity
  8
1
  6
CONTINUOUS
 62
             3
100
AcDbLine
 10
475.78394298291158
 20
607.05117514507901
 11
471.18307611951627
 21
588.27272727279706
  0
LINE
  5
95
100
AcDbEntity
  8
1
  6
CONTINUOUS
 62
             3
100
AcDbLine
 10
471.18307611951627
 20
588.27272727279706
 11
465.94788342556438
 21
588.27272727279706
  0
LINE
  5
94
100
AcDbEntity
  8
1
  6
CONTINUOUS
 62
             3
100
AcDbLine
 10
465.94788342556438
 20
588.27272727279706
 11
470.54875028891553
 21
607.05117514507901
  0
LINE
  5
93
100
AcDbEntity
  8
1
  6
CONTINUOUS
 62
             3
100
AcDbLine
 10
470.54875028891553
 20
607.05117514507901
 11
465.31355759499371
 21
607.05117514507901
  0
LINE
  5
92
100
AcDbEntity
  8
1
  6
CONTINUOUS
 62
             3
100
AcDbLine
 10
487.57747443297541
 20
607.05117514507901
 11
483.53202816996048
 21
607.05117514507901
  0
LINE
  5
91
100
AcDbEntity
  8
1
  6
CONTINUOUS
 62
             3
100
AcDbLine
 10
483.53202816996048
 20
607.05117514507901
 11
487.65432369215728
 21
596.41530121866072
  0
LINE
  5
90
100
AcDbEntity
  8
1
  6
CONTINUOUS
 62
             3
100
AcDbLine
 10
487.65432369215728
 20
596.41530121866072
 11
477.8471872473674
 21
583.8484848484768
  0
LINE
  5
8F
100
AcDbEntity
  8
1
  6
CONTINUOUS
 62
             3
100
AcDbLine
 10
477.8471872473674
 20
583.8484848484768
 11
481.89263351036448
 21
583.8484848484768
  0
LINE
  5
8E
100
AcDbEntity
  8
1
  6
CONTINUOUS
 62
             3
100
AcDbLine
 10
481.89263351036448
 20
583.8484848484768
 11
488.99676609046628
 21
592.95168537050176
  0
LINE
  5
8D
100
AcDbEntity
  8
1
  6
CONTINUOUS
 62
             3
100
AcDbLine
 10
488.99676609046628
 20
592.95168537050176
 11
492.52502178515027
 21
583.8484848484768
  0
LINE
  5
8C
100
AcDbEntity
  8
1
  6
CONTINUOUS
 62
             3
100
AcDbLine
 10
492.52502178515027
 20
583.8484848484768
 11
496.57046804819828
 21
583.8484848484768
  0
LINE
  5
8B
100
AcDbEntity
  8
1
  6
CONTINUOUS
 62
             3
100
AcDbLine
 10
496.57046804819828
 20
583.8484848484768
 11
491.69976995519443
 21
596.41530121860296
  0
LINE
  5
8A
100
AcDbEntity
  8
1
  6
CONTINUOUS
 62
             3
100
AcDbLine
 10
491.69976995519443
 20
596.41530121860296
 11
500.00000000027649
 21
607.05117514507901
  0
LINE
  5
89
100
AcDbEntity
  8
1
  6
CONTINUOUS
 62
             3
100
AcDbLine
 10
500.00000000027649
 20
607.05117514507901
 11
495.95455373721848
 21
607.05117514507901
  0
LINE
  5
88
100
AcDbEntity
  8
1
  6
CONTINUOUS
 62
             3
100
AcDbLine
 10
495.95455373721848
 20
607.05117514507901
 11
490.35732755693238
 21
599.87891706682376
  0
LINE
  5
87
100
AcDbEntity
  8
1
  6
CONTINUOUS
 62
             3
100
AcDbLine
 10
490.35732755693238
 20
599.87891706682376
 11
487.57747443297541
 21
607.05117514507901
  0
LINE
  5
86
100
AcDbEntity
  8
1
  6
CONTINUOUS
 62
             3
100
AcDbLine
 10
497.59932763371438
 20
581.19393939390966
 11
500.00000000023329
 21
575.0
  0
LINE
  5
85
100
AcDbEntity
  8
1
  6
CONTINUOUS
 62
             3
100
AcDbLine
 10
497.59932763371438
 20
581.19393939390966
 11
454.7901780815414
 21
581.19393939390966
  0
LINE
  5
84
100
AcDbEntity
  8
1
  6
CONTINUOUS
 62
             3
100
AcDbLine
 10
500.00000000023329
 20
575.0
 11
447.40919858142342
 21
575.0
  0
LINE
  5
83
100
AcDbEntity
  8
1
  6
CONTINUOUS
 62
             3
100
AcDbLine
 10
356.40918450699269
 20
618.11178120566183
 11
359.66110668447459
 21
631.38450847831996
  0
LINE
  5
82
100
AcDbEntity
  8
1
  6
CONTINUOUS
 62
             3
100
AcDbLine
 10
359.66110668447459
 20
631.38450847831996
 11
372.22556915019248
 21
631.38450847831996
  0
LINE
  5
81
100
AcDbEntity
  8
1
  6
CONTINUOUS
 62
             3
100
AcDbLine
 10
372.22556915019248
 20
631.38450847831996
 11
368.97364697251783
 21
618.11178120566183
  0
LINE
  5
80
100
AcDbEntity
  8
1
  6
CONTINUOUS
 62
             3
100
AcDbLine
 10
368.97364697251783
 20
618.11178120566183
 11
356.40918450699269
 21
618.11178120566183
  0
LINE
  5
7F
100
AcDbEntity
  8
1
  6
CONTINUOUS
 62
             3
100
AcDbLine
 10
367.42155692451371
 20
620.32390241779285
 11
359.04524861415888
 21
620.32390241779285
  0
LINE
  5
7E
100
AcDbEntity
  8
1
  6
CONTINUOUS
 62
             3
100
AcDbLine
 10
369.58950504299008
 20
629.17238726626874
 11
367.42155692451371
 21
620.32390241779285
  0
LINE
  5
7D
100
AcDbEntity
  8
1
  6
CONTINUOUS
 62
             3
100
AcDbLine
 10
361.21319673250059
 20
629.17238726626874
 11
369.58950504299008
 21
629.17238726626874
  0
LINE
  5
7C
100
AcDbEntity
  8
1
  6
CONTINUOUS
 62
             3
100
AcDbLine
 10
359.04524861415888
 20
620.32390241779285
 11
361.21319673250059
 21
629.17238726626874
  0
LINE
  5
7B
100
AcDbEntity
  8
1
  6
CONTINUOUS
 62
             3
100
AcDbLine
 10
374.73846164318479
 20
631.38450847831996
 11
371.48653946564832
 21
618.11178120566183
  0
LINE
  5
7A
100
AcDbEntity
  8
1
  6
CONTINUOUS
 62
             3
100
AcDbLine
 10
374.73846164318479
 20
631.38450847831996
 11
387.3029241087645
 21
631.38450847831996
  0
LINE
  5
79
100
AcDbEntity
  8
1
  6
CONTINUOUS
 62
             3
100
AcDbLine
 10
387.3029241087645
 20
631.38450847831996
 11
385.43539999891101
 21
623.76220485833164
  0
LINE
  5
78
100
AcDbEntity
  8
1
  6
CONTINUOUS
 62
             3
100
AcDbLine
 10
384.05100193123172
 20
618.11178120566183
 11
381.956924853592
 21
618.11178120566183
  0
LINE
  5
77
100
AcDbEntity
  8
1
  6
CONTINUOUS
 62
             3
100
AcDbLine
 10
381.956924853592
 20
618.11178120566183
 11
383.04089891296491
 21
622.53602362984384
  0
LINE
  5
76
100
AcDbEntity
  8
1
  6
CONTINUOUS
 62
             3
100
AcDbLine
 10
383.04089891296491
 20
622.53602362984384
 11
374.66459060243528
 21
622.53602362984384
  0
LINE
  5
75
100
AcDbEntity
  8
1
  6
CONTINUOUS
 62
             3
100
AcDbLine
 10
375.20657763202712
 20
624.74814484203307
 11
383.58288594240747
 21
624.74814484203307
  0
LINE
  5
74
100
AcDbEntity
  8
1
  6
CONTINUOUS
 62
             3
100
AcDbLine
 10
383.58288594240747
 20
624.74814484203307
 11
384.6668600017295
 21
629.17238726626874
  0
LINE
  5
73
100
AcDbEntity
  8
1
  6
CONTINUOUS
 62
             3
100
AcDbLine
 10
384.6668600017295
 20
629.17238726626874
 11
376.29055169121079
 21
629.17238726626874
  0
LINE
  5
72
100
AcDbEntity
  8
1
  6
CONTINUOUS
 62
             3
100
AcDbLine
 10
376.29055169121079
 20
629.17238726626874
 11
375.20657763202712
 21
624.74814484203307
  0
LINE
  5
71
100
AcDbEntity
  8
1
  6
CONTINUOUS
 62
             3
100
AcDbLine
 10
384.99872031734441
 20
621.97989581078173
 11
384.05100193123172
 21
618.11178120566183
  0
LINE
  5
70
100
AcDbEntity
  8
1
  6
CONTINUOUS
 62
             3
100
AcDbLine
 10
371.48653946564832
 20
618.11178120566183
 11
373.58061654332442
 21
618.11178120566183
  0
LINE
  5
6F
100
AcDbEntity
  8
1
  6
CONTINUOUS
 62
             3
100
AcDbLine
 10
373.58061654332442
 20
618.11178120566183
 11
374.66459060243528
 21
622.53602362984384
  0
LINE
  5
6E
100
AcDbEntity
  8
1
  6
CONTINUOUS
 62
             3
100
AcDbLine
 10
391.90989367949118
 20
631.38450847831996
 11
389.81581660192768
 21
631.38450847831996
  0
LINE
  5
6D
100
AcDbEntity
  8
1
  6
CONTINUOUS
 62
             3
100
AcDbLine
 10
389.81581660192768
 20
631.38450847831996
 11
386.56389442436222
 21
618.11178120566183
  0
LINE
  5
6C
100
AcDbEntity
  8
1
  6
CONTINUOUS
 62
             3
100
AcDbLine
 10
386.56389442436222
 20
618.11178120566183
 11
388.65797150208192
 21
618.11178120566183
  0
LINE
  5
6B
100
AcDbEntity
  8
1
  6
CONTINUOUS
 62
             3
100
AcDbLine
 10
388.65797150208192
 20
618.11178120566183
 11
391.90989367949118
 21
631.38450847831996
  0
LINE
  5
6A
100
AcDbEntity
  8
1
  6
CONTINUOUS
 62
             3
100
AcDbLine
 10
391.17086399506678
 20
618.11178120566183
 11
394.42278617261059
 21
631.38450847831996
  0
LINE
  5
69
100
AcDbEntity
  8
1
  6
CONTINUOUS
 62
             3
100
AcDbLine
 10
394.42278617261059
 20
631.38450847831996
 11
406.98724863820138
 21
631.38450847831996
  0
LINE
  5
68
100
AcDbEntity
  8
1
  6
CONTINUOUS
 62
             3
100
AcDbLine
 10
406.98724863820138
 20
631.38450847831996
 11
405.84907587607449
 21
626.73905393289078
  0
LINE
  5
67
100
AcDbEntity
  8
1
  6
CONTINUOUS
 62
             3
100
AcDbLine
 10
403.73532646067929
 20
618.11178120566183
 11
391.17086399506678
 21
618.11178120566183
  0
LINE
  5
66
100
AcDbEntity
  8
1
  6
CONTINUOUS
 62
             3
100
AcDbLine
 10
402.18323641263117
 20
620.32390241779285
 11
393.80692810230198
 21
620.32390241779285
  0
LINE
  5
65
100
AcDbEntity
  8
1
  6
CONTINUOUS
 62
             3
100
AcDbLine
 10
404.35118453092628
 20
629.17238726626874
 11
403.75499879854829
 21
626.73905393289078
  0
LINE
  5
64
100
AcDbEntity
  8
1
  6
CONTINUOUS
 62
             3
100
AcDbLine
 10
395.97487622062948
 20
629.17238726626874
 11
404.35118453092628
 21
629.17238726626874
  0
LINE
  5
63
100
AcDbEntity
  8
1
  6
CONTINUOUS
 62
             3
100
AcDbLine
 10
393.80692810230198
 20
620.32390241779285
 11
395.97487622062948
 21
629.17238726626874
  0
LINE
  5
62
100
AcDbEntity
  8
1
  6
CONTINUOUS
 62
             3
100
AcDbLine
 10
405.36128754945139
 20
624.74814484203307
 11
399.07905631664539
 21
624.74814484203307
  0
LINE
  5
61
100
AcDbEntity
  8
1
  6
CONTINUOUS
 62
             3
100
AcDbLine
 10
405.36128754945139
 20
624.74814484203307
 11
403.73532646067929
 21
618.11178120566183
  0
LINE
  5
60
100
AcDbEntity
  8
1
  6
CONTINUOUS
 62
             3
100
AcDbLine
 10
399.07905631664539
 20
624.74814484203307
 11
398.53706928699808
 21
622.53602362984384
  0
LINE
  5
5F
100
AcDbEntity
  8
1
  6
CONTINUOUS
 62
             3
100
AcDbLine
 10
398.53706928699808
 20
622.53602362984384
 11
402.72522344239837
 21
622.53602362984384
  0
LINE
  5
5E
100
AcDbEntity
  8
1
  6
CONTINUOUS
 62
             3
100
AcDbLine
 10
402.72522344239837
 20
622.53602362984384
 11
402.18323641263117
 21
620.32390241779285
  0
LINE
  5
5D
100
AcDbEntity
  8
1
  6
CONTINUOUS
 62
             3
100
AcDbLine
 10
403.75499879854829
 20
626.73905393289078
 11
405.84907587607449
 21
626.73905393289078
  0
LINE
  5
5C
100
AcDbEntity
  8
1
  6
CONTINUOUS
 62
             3
100
AcDbLine
 10
406.24821895379552
 20
618.11178120566183
 11
408.34229603135549
 21
618.11178120566183
  0
LINE
  5
5B
100
AcDbEntity
  8
1
  6
CONTINUOUS
 62
             3
100
AcDbLine
 10
408.34229603135549
 20
618.11178120566183
 11
411.59421820892447
 21
631.38450847831996
  0
LINE
  5
5A
100
AcDbEntity
  8
1
  6
CONTINUOUS
 62
             3
100
AcDbLine
 10
409.50014113136041
 20
631.38450847831996
 11
406.24821895379552
 21
618.11178120566183
  0
LINE
  5
59
100
AcDbEntity
  8
1
  6
CONTINUOUS
 62
             3
100
AcDbLine
 10
411.59421820892447
 20
631.38450847831996
 11
409.50014113136041
 21
631.38450847831996
  0
LINE
  5
58
100
AcDbEntity
  8
1
  6
CONTINUOUS
 62
             3
100
AcDbLine
 10
410.85518852452537
 20
618.11178120566183
 11
414.1071107020403
 21
631.38450847831996
  0
LINE
  5
57
100
AcDbEntity
  8
1
  6
CONTINUOUS
 62
             3
100
AcDbLine
 10
414.1071107020403
 20
631.38450847831996
 11
417.24822631838128
 21
631.38450847831996
  0
LINE
  5
56
100
AcDbEntity
  8
1
  6
CONTINUOUS
 62
             3
100
AcDbLine
 10
417.24822631838128
 20
631.38450847831996
 11
421.73206418465628
 21
619.770872114746
  0
LINE
  5
55
100
AcDbEntity
  8
1
  6
CONTINUOUS
 62
             3
100
AcDbLine
 10
421.73206418465628
 20
619.770872114746
 11
424.57749609000939
 21
631.38450847831996
  0
LINE
  5
54
100
AcDbEntity
  8
1
  6
CONTINUOUS
 62
             3
100
AcDbLine
 10
424.57749609000939
 20
631.38450847831996
 11
426.67157316762342
 21
631.38450847831996
  0
LINE
  5
53
100
AcDbEntity
  8
1
  6
CONTINUOUS
 62
             3
100
AcDbLine
 10
426.67157316762342
 20
631.38450847831996
 11
423.4196509900035
 21
618.11178120566183
  0
LINE
  5
52
100
AcDbEntity
  8
1
  6
CONTINUOUS
 62
             3
100
AcDbLine
 10
423.4196509900035
 20
618.11178120566183
 11
420.17697250123427
 21
618.11178120566183
  0
LINE
  5
51
100
AcDbEntity
  8
1
  6
CONTINUOUS
 62
             3
100
AcDbLine
 10
420.17697250123427
 20
618.11178120566183
 11
416.39581616552442
 21
627.90539462953484
  0
LINE
  5
50
100
AcDbEntity
  8
1
  6
CONTINUOUS
 62
             3
100
AcDbLine
 10
416.39581616552442
 20
627.90539462953484
 11
415.75526789901443
 21
629.56448553859764
  0
LINE
  5
4F
100
AcDbEntity
  8
1
  6
CONTINUOUS
 62
             3
100
AcDbLine
 10
415.75526789901443
 20
629.56448553859764
 11
412.94926560208518
 21
618.11178120566183
  0
LINE
  5
4E
100
AcDbEntity
  8
1
  6
CONTINUOUS
 62
             3
100
AcDbLine
 10
412.94926560208518
 20
618.11178120566183
 11
410.85518852452537
 21
618.11178120566183
  0
LINE
  5
4D
100
AcDbEntity
  8
1
  6
CONTINUOUS
 62
             3
100
AcDbLine
 10
425.93254348311939
 20
618.11178120566183
 11
433.44397376201658
 21
631.38450847831996
  0
LINE
  5
4C
100
AcDbEntity
  8
1
  6
CONTINUOUS
 62
             3
100
AcDbLine
 10
433.44397376201658
 20
631.38450847831996
 11
437.48942002499138
 21
631.38450847831996
  0
LINE
  5
4B
100
AcDbEntity
  8
1
  6
CONTINUOUS
 62
             3
100
AcDbLine
 10
437.48942002499138
 20
631.38450847831996
 11
438.49700594875338
 21
618.11178120566183
  0
LINE
  5
4A
100
AcDbEntity
  8
1
  6
CONTINUOUS
 62
             3
100
AcDbLine
 10
438.49700594875338
 20
618.11178120566183
 11
436.46732378568441
 21
618.11178120566183
  0
LINE
  5
49
100
AcDbEntity
  8
1
  6
CONTINUOUS
 62
             3
100
AcDbLine
 10
436.46732378568441
 20
618.11178120566183
 11
436.29939279841761
 21
620.32390241779285
  0
LINE
  5
48
100
AcDbEntity
  8
1
  6
CONTINUOUS
 62
             3
100
AcDbLine
 10
436.29939279841761
 20
620.32390241779285
 11
429.56324551805352
 21
620.32390241779285
  0
LINE
  5
47
100
AcDbEntity
  8
1
  6
CONTINUOUS
 62
             3
100
AcDbLine
 10
429.56324551805352
 20
620.32390241779285
 11
428.31134047169007
 21
618.11178120566183
  0
LINE
  5
46
100
AcDbEntity
  8
1
  6
CONTINUOUS
 62
             3
100
AcDbLine
 10
428.31134047169007
 20
618.11178120566183
 11
425.93254348311939
 21
618.11178120566183
  0
LINE
  5
45
100
AcDbEntity
  8
1
  6
CONTINUOUS
 62
             3
100
AcDbLine
 10
430.81515056458471
 20
622.53602362984384
 11
436.13146181109528
 21
622.53602362984384
  0
LINE
  5
44
100
AcDbEntity
  8
1
  6
CONTINUOUS
 62
             3
100
AcDbLine
 10
436.13146181109528
 20
622.53602362984384
 11
435.62766884924048
 21
629.17238726626874
  0
LINE
  5
43
100
AcDbEntity
  8
1
  6
CONTINUOUS
 62
             3
100
AcDbLine
 10
435.62766884924048
 20
629.17238726626874
 11
434.57086570395018
 21
629.17238726626874
  0
LINE
  5
42
100
AcDbEntity
  8
1
  6
CONTINUOUS
 62
             3
100
AcDbLine
 10
430.81515056458471
 20
622.53602362984384
 11
434.57086570395018
 21
629.17238726626874
  0
LINE
  5
41
100
AcDbEntity
  8
1
  6
CONTINUOUS
 62
             3
100
AcDbLine
 10
444.26182061944252
 20
631.38450847831996
 11
441.00989844187347
 21
618.11178120566183
  0
LINE
  5
40
100
AcDbEntity
  8
1
  6
CONTINUOUS
 62
             3
100
AcDbLine
 10
441.00989844187347
 20
618.11178120566183
 11
453.57436090745227
 21
618.11178120566183
  0
LINE
  5
3F
100
AcDbEntity
  8
1
  6
CONTINUOUS
 62
             3
100
AcDbLine
 10
453.57436090745227
 20
618.11178120566183
 11
454.11634793711352
 21
620.32390241779285
  0
LINE
  5
3E
100
AcDbEntity
  8
1
  6
CONTINUOUS
 62
             3
100
AcDbLine
 10
454.11634793711352
 20
620.32390241779285
 11
443.64596254909338
 21
620.32390241779285
  0
LINE
  5
3D
100
AcDbEntity
  8
1
  6
CONTINUOUS
 62
             3
100
AcDbLine
 10
443.64596254909338
 20
620.32390241779285
 11
446.35589769705638
 21
631.38450847831996
  0
LINE
  5
3C
100
AcDbEntity
  8
1
  6
CONTINUOUS
 62
             3
100
AcDbLine
 10
446.35589769705638
 20
631.38450847831996
 11
444.26182061944252
 21
631.38450847831996
  0
LINE
  5
3B
100
AcDbEntity
  8
1
  6
CONTINUOUS
 62
             3
100
AcDbLine
 10
490.87713298372552
 20
625.20011121384186
 11
490.87713298372552
 21
622.45105578828202
  0
LINE
  5
3A
100
AcDbEntity
  8
1
  6
CONTINUOUS
 62
             3
100
AcDbLine
 10
490.00468528461028
 20
622.45105578828202
 11
490.00468528461028
 21
629.30952396345606
  0
LINE
  5
39
100
AcDbEntity
  8
1
  6
CONTINUOUS
 62
             3
100
AcDbLine
 10
490.00468528461028
 20
629.30952396345606
 11
492.44660514385032
 21
629.30952396345606
  0
LINE
  5
38
100
AcDbEntity
  8
1
  6
CONTINUOUS
 62
             3
100
AcDbLine
 10
492.44660514385032
 20
629.30952396345606
 11
492.74296172620228
 21
629.30952396345606
  0
LINE
  5
37
100
AcDbEntity
  8
1
  6
CONTINUOUS
 62
             3
100
AcDbLine
 10
494.57659624076842
 20
624.33068955462568
 11
494.57659624076842
 21
622.45105578828202
  0
LINE
  5
36
100
AcDbEntity
  8
1
  6
CONTINUOUS
 62
             3
100
AcDbLine
 10
494.57659624076842
 20
622.45105578828202
 11
493.61540942526341
 21
622.45105578828202
  0
LINE
  5
35
100
AcDbEntity
  8
1
  6
CONTINUOUS
 62
             3
100
AcDbLine
 10
493.61540942526341
 20
622.45105578828202
 11
493.61540942526341
 21
624.07291105590002
  0
LINE
  5
34
100
AcDbEntity
  8
1
  6
CONTINUOUS
 62
             3
100
AcDbLine
 10
492.60219468534342
 20
625.20011121384186
 11
490.87713298372552
 21
625.20011121384186
  0
LINE
  5
33
100
AcDbEntity
  8
1
  6
CONTINUOUS
 62
             3
100
AcDbLine
 10
490.87713298372552
 20
622.45105578828202
 11
490.00468528461028
 21
622.45105578828202
  0
LINE
  5
32
100
AcDbEntity
  8
1
  6
CONTINUOUS
 62
             3
100
AcDbLine
 10
490.87713298372552
 20
626.05033454127579
 11
492.86461621166751
 21
626.05033454127579
  0
LINE
  5
31
100
AcDbEntity
  8
1
  6
CONTINUOUS
 62
             3
100
AcDbLine
 10
492.73310597581138
 20
628.50599253127803
 11
490.87713298372552
 21
628.50599253127803
  0
LINE
  5
30
100
AcDbEntity
  8
1
  6
CONTINUOUS
 62
             3
100
AcDbLine
 10
490.87713298372552
 20
628.50599253127803
 11
490.87713298372552
 21
626.05033454127579
  0
ENDBLK
  5
E4
100
AcDbEntity
  8
0
100
AcDbBlockEnd
  0
BLOCK
  5
2B
100
AcDbEntity
  8
0
100
AcDbBlockBegin
  2
WANNE_PICCOLO_CITY_670
 70
             0
 10
900.00000000023397
 20
-0.00000000000529
 30
0.0
  3
WANNE_PICCOLO_CITY_670
  1

  0
SPLINE
  5
F5
100
AcDbEntity
  8
0
  6
CONTINUOUS
 62
             7
100
AcDbSpline
210
0.0
220
0.0
230
1.0
 70
             0
 71
             3
 72
             8
 73
             4
 74
             3
 42
0.00000000001
 43
0.00000000001
 44
0.00000000001
 40
0.0
 40
0.0
 40
0.0
 40
0.0
 40
477.63461417416931
 40
477.63461417416931
 40
477.63461417416931
 40
477.63461417416931
 10
400.23688868516592
 20
0.0000038972336256
 30
0.0
 10
252.15827400902299
 20
57.181289146905733
 30
0.0
 10
116.32505312631
 20
142.04403731166661
 30
0.0
 10
-0.0000029114601148
 20
250.05078171834671
 30
0.0
 11
400.23688868516587
 21
0.0000038972336446
 31
0.0
 11
188.21085839746303
 21
105.96584562391216
 31
0.0
 11
-0.0000029114601148
 21
250.05078171834671
 31
0.0
  0
SPLINE
  5
F4
100
AcDbEntity
  8
0
  6
CONTINUOUS
 62
             7
100
AcDbSpline
210
0.0
220
0.0
230
1.0
 70
             0
 71
             4
 72
            10
 73
             5
 74
             3
 42
0.00000000001
 43
0.00000000001
 44
0.00000000001
 40
0.0
 40
0.0
 40
0.0
 40
0.0
 40
0.0
 40
62.404624049246138
 40
62.404624049246138
 40
62.404624049246138
 40
62.404624049246138
 40
62.404624049246138
 10
50.00000000001387
 20
497.52538974433082
 30
0.0
 10
45.713217857465906
 20
482.56503447370858
 30
0.0
 10
42.763886114130862
 20
467.2047491971768
 30
0.0
 10
41.151277274861059
 20
451.65911005050378
 30
0.0
 10
40.824746366151892
 20
436.09025371201568
 30
0.0
 11
50.00000000001387
 21
497.52538974433082
 31
0.0
 11
43.429127723766157
 21
467.10879479601584
 31
0.0
 11
40.824746366151892
 21
436.09025371201568
 31
0.0
  0
SPLINE
  5
F3
100
AcDbEntity
  8
0
  6
CONTINUOUS
 62
             7
100
AcDbSpline
210
0.0
220
0.0
230
1.0
 70
             1
 71
             3
 72
            91
 73
            87
 74
           167
 42
0.00000000001
 43
0.00000000001
 44
0.00000000001
 40
-6.4461571252272734
 40
0.0
 40
0.0
 40
9.714413966817931
 40
19.451175925476999
 40
44.020941473561649
 40
59.018851225797604
 40
89.412456235239858
 40
104.9544228251672
 40
136.67701576096417
 40
152.99110122584668
 40
186.39728683882976
 40
203.6085924802986
 40
238.84789090390302
 40
256.98161977174226
 40
294.01652185936899
 40
313.01195018406099
 40
351.64989550494693
 40
371.37763377120189
 40
411.30581731645896
 40
431.58494152023871
 40
472.40369201637952
 40
493.01782356742081
 40
534.27181685628238
 40
554.98423890602464
 40
596.19208310848421
 40
616.76026894368692
 40
657.44330298685588
 40
677.63327540571686
 40
717.34445014632411
 40
736.94538953787492
 40
775.29910087629116
 40
794.13861952188643
 40
830.84231195037273
 40
848.80274411408004
 40
883.69068484366107
 40
900.72636450669745
 40
933.79440139775159
 40
949.94866983753411
 40
981.38467371544039
 40
996.80250390385243
 40
1026.9998161948524
 40
1041.9275978317908
 40
1071.461988894813
 40
1086.2240375089664
 40
1115.9047834954199
 40
1130.9822599429294
 40
1161.504797479515
 40
1177.1012078452741
 40
1208.919932378866
 40
1225.2807086063833
 40
1258.7826892964761
 40
1276.0476425560876
 40
1311.4075431866415
 40
1329.6121578601499
 40
1366.8084889514439
 40
1385.8977850577905
 40
1424.7454755781323
 40
1444.5918937810131
 40
1484.7785764666019
 40
1505.1999119691916
 40
1546.3209049986319
 40
1567.0971616136701
 40
1608.6881698582658
 40
1629.5773806403674
 40
1671.1454327694109
 40
1691.8988361402676
 40
1732.9523422479476
 40
1753.3293572291848
 40
1793.4082089540013
 40
1813.1916522613928
 40
1851.8982874111011
 40
1870.9102752409094
 40
1907.942579092793
 40
1926.0614885296636
 40
1961.247974786686
 40
1978.4264490844857
 40
2011.762502608628
 40
2028.0451917332041
 40
2059.7248014412426
 40
2075.2614967044706
 40
2105.6910489728152
 40
2120.7362400697953
 40
2142.0839453608337
 40
2148.5366221282688
 40
2154.9827792534961
 40
2154.9827792534961
 40
2164.6971932203141
 40
2174.4339551789731
 40
2199.003720727058
 40
2214.0016304792939
 10
74.046386952069042
 20
490.68643556638381
 30
0.0
 10
71.388929618078919
 20
481.34257345070972
 30
0.0
 10
69.364517713308942
 20
471.81858847175181
 30
0.0
 10
65.888184614517968
 20
447.49599635507769
 30
0.0
 10
65.271829386927948
 20
432.51075684515871
 30
0.0
 10
67.046668710298036
 20
402.16901709862782
 30
0.0
 10
69.438930480288946
 20
386.81226584368272
 30
0.0
 10
77.240083158440029
 20
356.06385256002773
 30
0.0
 10
82.649811717192051
 20
340.67280901268782
 30
0.0
 10
96.420701949085924
 20
310.23704354785667
 30
0.0
 10
104.78211410509699
 20
295.19324653242978
 30
0.0
 10
124.299803684434
 20
265.8526952957456
 30
0.0
 10
135.4558850115659
 20
251.55675279184871
 30
0.0
 10
160.31492299406301
 20
224.10475462732771
 30
0.0
 10
174.0174742886459
 20
210.9492848425638
 30
0.0
 10
203.63992576036389
 20
186.14200390680861
 30
0.0
 10
219.55935689075
 20
174.4905932803328
 30
0.0
 10
253.21809038179501
 20
153.01154532651179
 30
0.0
 10
270.95691585381093
 20
143.18418813621469
 30
0.0
 10
307.80335956066187
 20
125.6197360176868
 30
0.0
 10
326.91050373078701
 20
117.8828463800036
 30
0.0
 10
366.00318963347701
 20
104.7050669315888
 30
0.0
 10
385.9882546493921
 20
99.264331367687817
 30
0.0
 10
426.32130388028258
 20
90.818529833626769
 30
0.0
 10
446.66879803428702
 20
87.813575557071715
 30
0.0
 10
487.20060042543793
 20
84.308970888590636
 30
0.0
 10
507.38439097009291
 20
83.809385536658681
 30
0.0
 10
547.06711058146402
 20
85.31243694108565
 30
0.0
 10
566.56547674763897
 20
87.315070677197753
 30
0.0
 10
604.37624055549782
 20
93.745724897171783
 30
0.0
 10
622.68801764549289
 20
98.173623112359735
 30
0.0
 10
657.6627856347618
 20
109.3058574784577
 30
0.0
 10
674.32512276334683
 20
116.0098596354166
 30
0.0
 10
705.59576375316487
 20
131.47968253151561
 30
0.0
 10
720.2035092689589
 20
140.2448495309167
 30
0.0
 10
747.03612838488584
 20
159.5711428953388
 30
0.0
 10
759.26083024747982
 20
170.1313063976358
 30
0.0
 10
781.08716530403399
 20
192.75504255704979
 30
0.0
 10
790.68933097112699
 20
204.81770819199181
 30
0.0
 10
807.11465494727099
 20
230.15713205834859
 30
0.0
 10
813.93891226353389
 20
243.4337346614827
 30
0.0
 10
824.71095574132482
 20
270.93361347532681
 30
0.0
 10
828.65953765654695
 20
285.15777531866269
 30
0.0
 10
833.6298822026879
 20
314.41939450497961
 30
0.0
 10
834.62635822529887
 20
329.46390618072257
 30
0.0
 10
833.5654653167478
 20
359.96800105188481
 30
0.0
 10
831.5070133417878
 20
375.42797491227469
 30
0.0
 10
824.32005985673595
 20
406.42440907087268
 30
0.0
 10
819.190626503354
 20
421.96030016987669
 30
0.0
 10
805.91914913434084
 20
452.7214867302668
 30
0.0
 10
797.77678199699881
 20
467.94582476045071
 30
0.0
 10
778.63044514624289
 20
497.67359557832458
 30
0.0
 10
767.62664691466193
 20
512.17616155437076
 30
0.0
 10
743.00357511312586
 20
540.05574874122772
 30
0.0
 10
729.38471293624093
 20
553.43213909299288
 30
0.0
 10
699.863074240684
 20
578.68319664496971
 30
0.0
 10
683.96078466729887
 20
590.5574335386757
 30
0.0
 10
650.27527730751081
 20
612.47217878441984
 30
0.0
 10
632.49255698062484
 20
622.51238801954469
 30
0.0
 10
595.50564373245697
 20
640.48192658067069
 30
0.0
 10
576.30194532780092
 20
648.41103791277669
 30
0.0
 10
536.97409409401098
 20
661.94366826075088
 30
0.0
 10
516.8504380551949
 20
667.54702392771469
 30
0.0
 10
476.2104108177349
 20
676.28150410351168
 30
0.0
 10
455.69454981962031
 20
679.41251016858473
 30
0.0
 10
414.80951541044902
 20
683.12792738529083
 30
0.0
 10
394.4408805826929
 20
683.71226872310785
 30
0.0
 10
354.38569592018303
 20
682.33512049867068
 30
0.0
 10
334.69973161692792
 20
680.37363163871373
 30
0.0
 10
296.52449250004793
 20
673.98186169747873
 30
0.0
 10
278.03586373722311
 20
669.55170507369871
 30
0.0
 10
242.73066850516491
 20
658.37428505812773
 30
0.0
 10
225.91478383040911
 20
651.62736711088473
 30
0.0
 10
194.37112891113199
 20
636.03613080810283
 30
0.0
 10
179.6439412138179
 20
627.19249344962577
 30
0.0
 10
152.61475592140189
 20
607.68055846119569
 30
0.0
 10
140.3129334053979
 20
597.01326602532777
 30
0.0
 10
118.37985501718209
 20
574.15418153644168
 30
0.0
 10
108.748032280969
 20
561.96332879840179
 30
0.0
 10
92.313434535067017
 20
536.35353285656879
 30
0.0
 10
85.509508992493011
 20
522.9347261899627
 30
0.0
 10
77.851903056541005
 20
503.00771957776158
 30
0.0
 10
75.809785916439068
 20
496.88670699395669
 30
0.0
 10
74.046386952069042
 20
490.68643556638381
 30
0.0
 10
74.046386952069042
 20
490.68643556638381
 30
0.0
 10
71.388929618078919
 20
481.34257345070972
 30
0.0
 10
69.364517713308942
 20
471.81858847175181
 30
0.0
 11
71.831707398029749
 21
482.63425441733381
 31
0.0
 11
70.765052469160324
 21
478.25275160599517
 31
0.0
 11
69.978890073936398
 21
474.26235175597964
 31
0.0
 11
67.875556044350361
 21
460.87810558851362
 31
0.0
 11
66.15460000675823
 21
447.03253753541128
 31
0.0
 11
65.673003563453662
 21
440.6496681258447
 31
0.0
 11
65.59546333157293
 21
434.40226519044512
 31
0.0
 11
66.252051469523636
 21
417.50813327717634
 31
0.0
 11
67.512995162020957
 21
400.81074222684651
 31
0.0
 11
68.282138448180987
 21
394.63674071288659
 31
0.0
 11
69.410133374149495
 21
388.55092030313386
 31
0.0
 11
73.389340079810353
 21
371.63550015909703
 31
0.0
 11
77.95176523469695
 21
354.78447082347424
 31
0.0
 11
79.943279304042164
 21
348.55365948074058
 31
0.0
 11
82.260275451279313
 21
342.48032606379417
 31
0.0
 11
89.535220290372578
 21
325.68362762145193
 31
0.0
 11
97.363743699149992
 21
309.03515965670357
 31
0.0
 11
100.55933783620921
 21
302.91045720746558
 31
0.0
 11
104.03807983057379
 21
296.99403558269239
 31
0.0
 11
114.4982317964859
 21
280.75209950453547
 31
0.0
 11
125.46721520849222
 21
264.73463412421802
 31
0.0
 11
129.80693580179221
 21
258.88706811646415
 31
0.0
 11
134.38592227190657
 21
253.28176581494418
 31
0.0
 11
147.81642580202865
 21
238.03873801515104
 31
0.0
 11
161.69955879546922
 21
223.08673590473438
 31
0.0
 11
167.0832664426934
 21
217.6823040457835
 31
0.0
 11
172.66546779594469
 21
212.54128278645518
 31
0.0
 11
188.75321115263705
 21
198.7209888910659
 31
0.0
 11
205.2292507474294
 21
185.24827564061485
 31
0.0
 11
211.52229864708738
 21
180.43878662429887
 31
0.0
 11
217.97818183203859
 21
175.90540483647683
 31
0.0
 11
236.32567466286096
 21
163.89092828013719
 31
0.0
 11
254.99139989221726
 21
152.27112301041481
 31
0.0
 11
262.03138058791563
 21
148.1885390907716
 31
0.0
 11
269.20374106296305
 21
144.39009837428671
 31
0.0
 11
289.34527103851048
 21
134.5101313433845
 31
0.0
 11
309.73079619033842
 21
125.06314480999102
 31
0.0
 11
317.33410894815296
 21
121.81608494376138
 31
0.0
 11
325.043444908357
 21
118.85940811610764
 31
0.0
 11
346.4613438895077
 21
111.3789653566337
 31
0.0
 11
368.04581490686166
 21
104.36152072361969
 31
0.0
 11
376.0138523494258
 21
102.03293993981383
 31
0.0
 11
384.06385352277033
 21
100.00110469989914
 31
0.0
 11
406.20447845320018
 21
95.114863380633267
 31
0.0
 11
428.43172394083183
 21
90.713522776922787
 31
0.0
 11
436.55682730531055
 21
89.359065419245127
 31
0.0
 11
444.73992032561159
 21
88.308859837444132
 31
0.0
 11
467.02958701119388
 21
86.13622037915971
 31
0.0
 11
489.32389053849272
 21
84.462090078129492
 31
0.0
 11
497.39527968921817
 21
84.108934847098837
 31
0.0
 11
505.49831643982162
 21
84.068800626594367
 31
0.0
 11
527.35960498128247
 21
84.650353942877729
 31
0.0
 11
549.14198785021745
 21
85.735155042333531
 31
0.0
 11
556.95186359020124
 21
86.381365270290772
 31
0.0
 11
564.76213186018197
 21
87.349740071377738
 31
0.0
 11
585.63107761293804
 21
90.645293266683069
 31
0.0
 11
606.3366462797303
 21
94.438937882079742
 31
0.0
 11
613.68666182901813
 21
96.053508415822492
 31
0.0
 11
620.99851372389787
 21
97.997655535609695
 31
0.0
 11
640.34326383045925
 21
103.88656963418298
 31
0.0
 11
659.44031680079752
 21
110.25704296182428
 31
0.0
 11
666.14858267788861
 21
112.78110638560084
 31
0.0
 11
672.77108612173697
 21
115.63686708062305
 31
0.0
 11
690.11235676618389
 21
123.92244423476032
 31
0.0
 11
707.12372638052375
 21
132.65993918241134
 31
0.0
 11
713.03225992588398
 21
136.01002245672169
 31
0.0
 11
718.79815860713495
 21
139.68358568829166
 31
0.0
 11
733.73050255493922
 21
150.10451594548735
 31
0.0
 11
748.25610865557337
 21
160.93328796307893
 31
0.0
 11
753.23777157726795
 21
165.00789825261185
 31
0.0
 11
758.01312749373437
 21
169.38152996799062
 31
0.0
 11
770.22257319934943
 21
181.63365047254621
 31
0.0
 11
781.95815330249309
 21
194.23534874913756
 31
0.0
 11
785.92032764468127
 21
198.92556635335316
 31
0.0
 11
789.61187929415996
 21
203.86916343989631
 31
0.0
 11
798.88058613414341
 21
217.63660175450886
 31
0.0
 11
807.62200081172409
 21
231.68382022100803
 31
0.0
 11
810.50271960046575
 21
236.88528396004432
 31
0.0
 11
813.05727122617691
 21
242.27219194757618
 31
0.0
 11
819.24556719809584
 21
257.25508898170563
 31
0.0
 11
824.86722890542035
 21
272.4356085661517
 31
0.0
 11
826.62078234997182
 21
278.04779923218416
 31
0.0
 11
828.01098507741642
 21
283.75704126600669
 31
0.0
 11
831.03331250243968
 21
299.73489472605388
 31
0.0
 11
833.46627642648059
 21
315.85582315559265
 31
0.0
 11
834.05888383828449
 21
321.85837752494916
 31
0.0
 11
834.26950086356885
 21
327.86597942988266
 31
0.0
 11
833.9994169276589
 21
344.59145775856655
 31
0.0
 11
833.12337542759053
 21
361.34596752825519
 31
0.0
 11
832.49204448062471
 21
367.55604321929712
 31
0.0
 11
831.49284165633719
 21
373.68579812216035
 31
0.0
 11
827.85737463332464
 21
390.73118346895762
 31
0.0
 11
823.62652499168621
 21
407.72101133550416
 31
0.0
 11
821.75231840340314
 21
414.00670498871386
 31
0.0
 11
819.54284781463002
 21
420.13897134812896
 31
0.0
 11
812.54978827741161
 21
437.11003015611095
 31
0.0
 11
804.98985079673616
 21
453.93892307467786
 31
0.0
 11
801.88705133829728
 21
460.13486596266222
 31
0.0
 11
798.49182739122364
 21
466.12332410038709
 31
0.0
 11
788.24355259219988
 21
482.57563774757489
 31
0.0
 11
777.47289544295768
 21
498.80667013575953
 31
0.0
 11
773.19864855650849
 21
504.73751893041037
 31
0.0
 11
768.67707317914392
 21
510.42453292233523
 31
0.0
 11
755.38371803575581
 21
525.9019838815168
 31
0.0
 11
741.62469919548289
 21
541.08894083354642
 31
0.0
 11
736.27815741547727
 21
546.58343192987218
 31
0.0
 11
730.72649219102016
 21
551.81142814424891
 31
0.0
 11
714.70086048160385
 21
565.87655110848971
 31
0.0
 11
698.27496379318632
 21
579.59233388923451
 31
0.0
 11
691.99158033451226
 21
584.4932421810729
 31
0.0
 11
685.540080595679
 21
589.11409719878134
 31
0.0
 11
667.18359113258987
 21
601.37011657662231
 31
0.0
 11
648.49832532359812
 21
613.22779849792039
 31
0.0
 11
641.44282311548113
 21
617.39808903223786
 31
0.0
 11
634.25079091357566
 21
621.27985040266765
 31
0.0
 11
614.03668920551956
 21
631.38538503993766
 31
0.0
 11
593.56970725225926
 21
641.05271608099667
 31
0.0
 11
585.92918976414558
 21
644.37931290109248
 31
0.0
 11
578.17938992477161
 21
647.41092917852552
 31
0.0
 11
556.63575810962993
 21
655.08992835186302
 31
0.0
 11
534.91848824851763
 21
662.29945832653698
 31
0.0
 11
526.8959579280579
 21
664.69571953892932
 31
0.0
 11
518.78889834339304
 21
666.79051262322457
 31
0.0
 11
496.48196863981673
 21
671.83933521950644
 31
0.0
 11
474.08328887088476
 21
676.39581862971033
 31
0.0
 11
465.8914247661109
 21
677.80328174943099
 31
0.0
 11
457.63957874342952
 21
678.90163906034695
 31
0.0
 11
435.15711964166621
 21
681.19428582270405
 31
0.0
 11
412.66692220149571
 21
682.98028692374589
 31
0.0
 11
404.52189707160778
 21
683.36989322886757
 31
0.0
 11
396.34378204166444
 21
683.44143871228425
 31
0.0
 11
374.27811806934017
 21
682.93330001298762
 31
0.0
 11
352.29035975376235
 21
681.91335615920536
 31
0.0
 11
344.40548586904299
 21
681.28614835761016
 31
0.0
 11
336.51941258067461
 21
680.33149424707585
 31
0.0
 11
315.44953618364428
 21
677.06147442989129
 31
0.0
 11
294.54419339471644
 21
673.28469219513568
 31
0.0
 11
287.12318778032846
 21
671.67179054890335
 31
0.0
 11
279.74037059476507
 21
669.72378604612823
 31
0.0
 11
260.21253106206751
 21
663.81403194889936
 31
0.0
 11
240.93572397688953
 21
657.41429694232602
 31
0.0
 11
234.16541595279628
 21
654.87567364912309
 31
0.0
 11
227.48201416865646
 21
651.99970327702295
 31
0.0
 11
209.98841409512684
 21
643.65112679063429
 31
0.0
 11
192.83017952461324
 21
634.84289822545372
 31
0.0
 11
186.87274437820122
 21
631.46401552682789
 31
0.0
 11
181.06052128890363
 21
627.75620137495957
 31
0.0
 11
166.01713484746463
 21
617.23662822734389
 31
0.0
 11
151.38789208294577
 21
606.30266408370289
 31
0.0
 11
146.37360840772592
 21
602.18762213911623
 31
0.0
 11
141.56985150887112
 21
597.76887383890255
 31
0.0
 11
129.29802988959719
 21
585.39036954382982
 31
0.0
 11
117.50903971175005
 21
572.65739369295852
 31
0.0
 11
113.53247734467872
 21
567.91786428498017
 31
0.0
 11
109.832318982874
 21
562.92178852294751
 31
0.0
 11
100.52506414533326
 21
548.9509263476582
 31
0.0
 11
91.580981871038858
 21
534.35396982565737
 31
0.0
 11
88.493568448074498
 21
528.66301126804433
 31
0.0
 11
85.67290213007341
 21
522.55659802899277
 31
0.0
 11
81.036514268095559
 21
511.14617952545859
 31
0.0
 11
77.142085813063005
 21
500.77435366889938
 31
0.0
 11
76.377750632556769
 21
498.54728223942652
 31
0.0
 11
75.560585069522318
 21
495.91085356020972
 31
0.0
 11
74.566131903824839
 21
492.50145110354697
 31
0.0
 11
74.046386952069042
 21
490.68643556638381
 31
0.0
 11
73.271851237553932
 21
487.9299516674223
 31
0.0
 11
71.831707398029735
 21
482.63425441733381
 31
0.0
  0
SPLINE
  5
F2
100
AcDbEntity
  8
0
  6
CONTINUOUS
 62
             7
100
AcDbSpline
210
0.0
220
0.0
230
1.0
 70
             0
 71
             4
 72
            20
 73
            15
 74
            23
 42
0.00000000001
 43
0.00000000001
 44
0.00000000001
 40
1219.3104431426791
 40
1219.3104431426791
 40
1219.3104431426791
 40
1219.3104431426791
 40
1219.3104431426791
 40
1259.5423988028529
 40
1301.4895965052733
 40
1357.43559126626
 40
1420.7499441125638
 40
1486.7086637849975
 40
1555.0840762972412
 40
1625.3824789772548
 40
1696.9131094469483
 40
1764.8019056356657
 40
1819.5787591917911
 40
1879.542536442638
 40
1879.542536442638
 40
1879.542536442638
 40
1879.542536442638
 40
1879.542536442638
 10
859.22892768492488
 20
335.09751441933162
 30
0.0
 10
859.25834393008381
 20
339.51556699814881
 30
0.0
 10
858.94239930726599
 20
358.33916705473479
 30
0.0
 10
855.03314785125394
 20
392.08862170448458
 30
0.0
 10
841.14705212159993
 20
440.03767425835571
 30
0.0
 10
812.74399401865389
 20
495.11836096358678
 30
0.0
 10
773.54119685577189
 20
546.5337238944287
 30
0.0
 10
724.7952280409188
 20
592.87950268386567
 30
0.0
 10
667.97639228894582
 20
632.88444211767069
 30
0.0
 10
604.75753076776891
 20
665.43655595855876
 30
0.0
 10
536.98619915343102
 20
689.61097334433566
 30
0.0
 10
474.58594197502572
 20
703.01539809217184
 30
0.0
 10
429.07766645734608
 20
707.51274160162075
 30
0.0
 10
401.53773649905793
 20
708.27699958971584
 30
0.0
 10
391.9895046916111
 20
708.30214615524869
 30
0.0
 11
859.22892768492488
 21
335.09751441933162
 31
0.0
 11
858.88158083145106
 21
349.15098614227344
 31
0.0
 11
857.35188591871315
 21
367.88118310022503
 31
0.0
 11
854.24376781979004
 21
388.07435134385372
 31
0.0
 11
849.54461000110814
 21
408.25679370880403
 31
0.0
 11
840.66975751868495
 21
435.07729855304268
 31
0.0
 11
828.85366866805282
 21
461.730784077203
 31
0.0
 11
812.58889583381745
 21
490.86983634630468
 31
0.0
 11
794.09074041514828
 21
517.98995242515741
 31
0.0
 11
772.89071126405122
 21
543.93956149443864
 31
0.0
 11
749.88521090996346
 21
567.82365268932551
 31
0.0
 11
724.27995230995168
 21
590.58956208276413
 31
0.0
 11
697.02413617178979
 21
611.41154039051628
 31
0.0
 11
667.39059514726978
 21
630.8470282450038
 31
0.0
 11
636.12929247220904
 21
648.33161778054193
 31
0.0
 11
602.5205922486582
 21
664.17170361767751
 31
0.0
 11
567.31917379263552
 21
677.93523744070956
 31
0.0
 11
533.33166035107149
 21
688.71619285545728
 31
0.0
 11
499.56005954352526
 21
696.99608805092396
 31
0.0
 11
472.45808494518832
 21
701.91641476493578
 31
0.0
 11
445.38883028705925
 21
705.39482361095293
 31
0.0
 11
416.34685397014454
 21
707.60821572216128
 31
0.0
 11
391.9895046916111
 21
708.30214615524869
 31
0.0
  0
SPLINE
  5
F1
100
AcDbEntity
  8
0
  6
CONTINUOUS
 62
             7
100
AcDbSpline
210
0.0
220
0.0
230
1.0
 70
             0
 71
             4
 72
            16
 73
            11
 74
            15
 42
0.00000000001
 43
0.00000000001
 44
0.00000000001
 40
1876.5155286863951
 40
1876.5155286863951
 40
1876.5155286863951
 40
1876.5155286863951
 40
1876.5155286863951
 40
1930.776352462354
 40
1980.5086348463533
 40
2041.654928983462
 40
2105.0606268044853
 40
2168.9429346968354
 40
2228.9637639687826
 40
2310.7042140334797
 40
2310.7042140334797
 40
2310.7042140334797
 40
2310.7042140334797
 40
2310.7042140334797
 10
391.9895046916111
 20
708.30214615524869
 30
0.0
 10
383.87804120543001
 20
708.32350879623186
 30
0.0
 10
358.62973935177303
 20
707.85134836817178
 30
0.0
 10
316.9922635589669
 20
704.24651518089672
 30
0.0
 10
260.56051039936011
 20
692.35366448714376
 30
0.0
 10
200.09732217151301
 20
669.54775541155186
 30
0.0
 10
147.1355176363509
 20
636.94927641932577
 30
0.0
 10
97.287870624745892
 20
594.34383193595386
 30
0.0
 10
70.180927610110075
 20
547.10097332425585
 30
0.0
 10
54.550314000015078
 20
522.31627700016384
 30
0.0
 10
50.00000000001387
 20
497.52538974433082
 30
0.0
 11
391.9895046916111
 21
708.30214615524869
 31
0.0
 11
370.28363694015894
 21
707.84466854794732
 31
0.0
 11
343.74909228041577
 21
706.09038035499191
 31
0.0
 11
318.931767543516
 21
703.13492474051429
 31
0.0
 11
294.15377703496523
 21
698.77350935060133
 31
0.0
 11
263.68075908858225
 21
691.22895682111732
 31
0.0
 11
233.30030120342582
 21
681.09402434969468
 31
0.0
 11
202.83015769108039
 21
667.9962599426733
 31
0.0
 11
174.38948455339207
 21
652.59290470287897
 31
0.0
 11
147.94279265412197
 21
635.00740798454967
 31
0.0
 11
123.64383961839236
 21
615.19777696413655
 31
0.0
 11
103.09995572602658
 21
593.89135993570289
 31
0.0
 11
85.051957156817508
 21
570.12251954771727
 31
0.0
 11
64.312377457238512
 21
536.90623322002432
 31
0.0
 11
50.00000000001387
 21
497.52538974433082
 31
0.0
  0
SPLINE
  5
F0
100
AcDbEntity
  8
0
  6
CONTINUOUS
 62
             7
100
AcDbSpline
210
0.0
220
0.0
230
1.0
 70
             0
 71
             4
 72
            19
 73
            14
 74
            21
 42
0.00000000001
 43
0.00000000001
 44
0.00000000001
 40
62.151259953481151
 40
62.151259953481151
 40
62.151259953481151
 40
62.151259953481151
 40
62.151259953481151
 40
142.32969296753592
 40
201.48715177922469
 40
267.48041257043087
 40
333.4397371528446
 40
401.81494128246197
 40
472.11329438530947
 40
543.6442540165433
 40
611.76143165919291
 40
666.99749696286915
 40
728.10584681774208
 40
728.10584681774208
 40
728.10584681774208
 40
728.10584681774208
 40
728.10584681774208
 10
40.824746366151892
 20
436.09025371201568
 30
0.0
 10
40.410811185945022
 20
416.35399848409759
 30
0.0
 10
43.321534269892943
 20
381.53090108105079
 30
0.0
 10
56.400200138854871
 20
332.25024882865881
 30
0.0
 10
87.254479105965856
 20
272.40783279503171
 30
0.0
 10
126.459417285103
 20
220.99132585466779
 30
0.0
 10
175.2045159114671
 20
174.6460803208447
 30
0.0
 10
232.02375006512989
 20
134.6406969796098
 30
0.0
 10
295.24228820463799
 20
102.0894415400637
 30
0.0
 10
363.01422780226608
 20
77.912743829196813
 30
0.0
 10
425.86083640542267
 20
64.417720889650752
 30
0.0
 10
471.8341397097343
 20
59.918290132128682
 30
0.0
 10
499.8325395713739
 20
59.210913115771689
 30
0.0
 10
509.8370687401769
 20
59.222461503816653
 30
0.0
 11
40.824746366151892
 21
436.09025371201568
 31
0.0
 11
43.065647207506586
 21
396.50229905961061
 31
0.0
 11
51.125462421272601
 21
357.69785477481196
 31
0.0
 11
60.453477716245267
 21
330.06812785058304
 31
0.0
 11
72.352717071003909
 21
303.43404116507912
 31
0.0
 11
88.353691948643942
 21
275.03215042647997
 31
0.0
 11
106.90904349117471
 21
248.15050114586757
 31
0.0
 11
127.68102831758866
 21
222.92150649272799
 31
0.0
 11
150.4038974927943
 21
199.40290546468299
 31
0.0
 11
175.82480938351549
 21
176.83467731241714
 31
0.0
 11
202.99580977668469
 21
156.09393715590289
 31
0.0
 11
232.59998841139748
 21
136.68250878871572
 31
0.0
 11
263.83667967941625
 21
119.209643105816
 31
0.0
 11
297.39795790191567
 21
103.38691380951501
 31
0.0
 11
332.53271103046865
 21
89.642737112156709
 31
0.0
 11
366.58088778566162
 21
78.838368258912809
 31
0.0
 11
400.44163957942817
 21
70.534947992061035
 31
0.0
 11
427.76751939842217
 21
65.576775867895549
 31
0.0
 11
455.0734103414664
 21
62.081256329844038
 31
0.0
 11
484.72397870280554
 21
59.863067883922277
 31
0.0
 11
509.8370687401769
 21
59.222461503816653
 31
0.0
  0
SPLINE
  5
EF
100
AcDbEntity
  8
0
  6
CONTINUOUS
 62
             7
100
AcDbSpline
210
0.0
220
0.0
230
1.0
 70
             0
 71
             4
 72
            18
 73
            13
 74
            19
 42
0.00000000001
 43
0.00000000001
 44
0.00000000001
 40
724.83809227963434
 40
724.83809227963434
 40
724.83809227963434
 40
724.83809227963434
 40
724.83809227963434
 40
777.95275115197819
 40
827.22706033472571
 40
888.16332755471217
 40
951.47768954874959
 40
1012.2387638023229
 40
1070.8713318839214
 40
1125.8645267926736
 40
1170.8184144662075
 40
1222.6394095033543
 40
1222.6394095033543
 40
1222.6394095033543
 40
1222.6394095033543
 40
1222.6394095033543
 10
509.8370687401769
 20
59.222461503816653
 30
0.0
 10
517.49154679306298
 20
59.23129719026764
 30
0.0
 10
542.28000596482502
 20
59.760984516629783
 30
0.0
 10
583.45263908549191
 20
63.388391862982807
 30
0.0
 10
639.45962853871697
 20
75.090754462262737
 30
0.0
 10
699.85220986182389
 20
98.18054847843672
 30
0.0
 10
752.99026535670691
 20
130.07038412510761
 30
0.0
 10
797.17681551384794
 20
169.99138799656271
 30
0.0
 10
830.83763357407702
 20
216.8747433682926
 30
0.0
 10
850.9147502152839
 20
265.13587186127478
 30
0.0
 10
857.82122782901001
 20
302.13383459129062
 30
0.0
 10
859.16522940069899
 20
325.53061125515381
 30
0.0
 10
859.22892768492488
 20
335.09751441933162
 30
0.0
 11
509.8370687401769
 21
59.222461503816653
 31
0.0
 11
530.78464753750586
 21
59.729323100064505
 31
0.0
 11
556.70723740094968
 21
61.48401717206437
 31
0.0
 11
581.29400987741053
 21
64.418270540815953
 31
0.0
 11
605.87718551386138
 21
68.736406883113915
 31
0.0
 11
636.39428447870091
 21
76.31373038422845
 31
0.0
 11
666.99079979523049
 21
86.588651340664526
 31
0.0
 11
697.88394221598207
 21
99.887083936006263
 31
0.0
 11
726.75945193836867
 21
115.50839603514558
 31
0.0
 11
752.29578910409032
 21
132.65485161310514
 31
0.0
 11
775.803498775766
 21
152.10174438783361
 31
0.0
 11
796.56145719353003
 21
173.29232551359848
 31
0.0
 11
815.13646339326283
 21
196.84856029979358
 31
0.0
 11
829.96534086646761
 21
220.61885284556138
 31
0.0
 11
841.75819457963962
 21
245.48820094054679
 31
0.0
 11
849.07537541181898
 21
266.47440064495163
 31
0.0
 11
854.37086134782953
 21
287.94379013301432
 31
0.0
 11
858.02048879137601
 21
312.80295160896731
 31
0.0
 11
859.22892768492488
 21
335.09751441933162
 31
0.0
  0
CIRCLE
  5
EE
100
AcDbEntity
  8
GEOMETRIE
  6
CONTINUOUS
 62
             7
100
AcDbCircle
 10
287.79406700007598
 20
265.36095400008179
 40
75.67802000000009
  0
CIRCLE
  5
ED
100
AcDbEntity
  8
GEOMETRIE
  6
CONTINUOUS
 62
             7
100
AcDbCircle
 10
287.79406700007598
 20
265.36095400008179
 40
68.39577899999998
  0
CIRCLE
  5
EC
100
AcDbEntity
  8
GEOMETRIE
  6
CONTINUOUS
 62
             7
100
AcDbCircle
 10
287.79406700007598
 20
265.36095400008179
 40
54.96428899999998
  0
CIRCLE
  5
EB
100
AcDbEntity
  8
GEOMETRIE
  6
CONTINUOUS
 62
             7
100
AcDbCircle
 10
287.79406700007598
 20
265.36095400008179
 40
44.99999999999997
  0
LINE
  5
EA
100
AcDbEntity
  8
WANNE
  6
CONTINUOUS
 62
             7
100
AcDbLine
 10
0.0
 20
250.0507790150827
 11
0.0
 21
750.00000000022374
  0
LINE
  5
E9
100
AcDbEntity
  8
WANNE
  6
CONTINUOUS
 62
             7
100
AcDbLine
 10
900.00000000023397
 20
-0.00000000000529
 11
900.00000000023488
 21
750.00000000019168
  0
LINE
  5
E8
100
AcDbEntity
  8
WANNE
  6
CONTINUOUS
 62
             7
100
AcDbLine
 10
400.2368990001039
 20
0.00000000000972
 11
900.00000000023397
 21
-0.00000000000529
  0
LINE
  5
E7
100
AcDbEntity
  8
WANNE
  6
CONTINUOUS
 62
             7
100
AcDbLine
 10
900.00000000023488
 20
750.00000000019168
 11
0.0
 21
750.00000000022374
  0
LINE
  5
E6
100
AcDbEntity
  8
MITTELLINIEN
  6
DOT_CENTER
 62
             3
100
AcDbLine
 10
287.79406700007598
 20
169.68293500008281
 11
287.79406700007598
 21
359.35090900007981
  0
LINE
  5
E5
100
AcDbEntity
  8
MITTELLINIEN
  6
DOT_CENTER
 62
             3
100
AcDbLine
 10
383.47208600007588
 20
265.36095400008179
 11
193.804112000076
 21
265.36095400008179
  0
ENDBLK
  5
F6
100
AcDbEntity
  8
0
100
AcDbBlockEnd
  0
ENDSEC
  0
SECTION
  2
ENTITIES
  0
TEXT
  5
FA
100
AcDbEntity
  8
1
 62
             3
100
AcDbText
 10
362.79406700007559
 20
340.3609540000827
 40
35.0
  1
ø 90
 41
0.71262
  7
CONVERTER_1
100
AcDbText
  0
MTEXT
  5
F9
100
AcDbEntity
  8
1
 62
             2
100
AcDbMText
 10
600.00000000023283
 20
500.00000000000051
 30
0.0
 40
35.0
 41
0.0
 71
             9
 72
             1
  1
PICCOLO City 670
  7
CONVERTER_1
  0
INSERT
  5
2E
100
AcDbEntity
  8
0
100
AcDbBlockReference
  2
DLX
 10
319.67049684802652
 20
575.0
  0
INSERT
  5
2F
100
AcDbEntity
  8
0
100
AcDbBlockReference
  2
WANNE_PICCOLO_CITY_670
 10
900.00000000023397
 20
-0.00000000000529
  0
ENDSEC
  0
SECTION
  2
OBJECTS
  0
DICTIONARY
  5
19
100
AcDbDictionary
  3
ACAD_GROUP
350
1A
  3
ACAD_MLINESTYLE
350
1B
  0
DICTIONARY
  5
1A
102
{ACAD_REACTORS
330
19
102
}
100
AcDbDictionary
  0
DICTIONARY
  5
1B
102
{ACAD_REACTORS
330
19
102
}
100
AcDbDictionary
  3
STANDARD
350
1C
  0
MLINESTYLE
  5
1C
102
{ACAD_REACTORS
330
1B
102
}
100
AcDbMlineStyle
  2
STANDARD
 70
             0
  3

 62
             0
 51
90.0
 52
90.0
 71
             2
 49
0.5
 62
           256
  6
BYLAYER
 49
-0.5
 62
           256
  6
BYLAYER
  0
ENDSEC
  0
EOF
